Hojas Secas, Diablos Negros (tablatura)

Autor: Eduardo Master | 26465 visualizaciones



INTRO:

G5     Bm    C     D°  y despues:             D  
E------------2---------------------   
B--------3------------3------------                                                   
G-----2----------------------------                                                   
D----------------------------------                    
A---------------------0------------                
E----------------------------------

VERSO1:

G5        
Estoy cubierto 
     Bm
Por un sentimiento
  C                 D   Dsus4  D  Dsus4  G5
Que me hace a veces recordar
G5
Y con el tiempo
           Bm
Me empezado a sentir
   C                         D  Dsus4  D  Dsus4  Em
Encadenado, sin esperanza de libertad

CORO1:
          Em
Anoche recordaba
             Bm
Nuestro primer beso
     C                  D
Recordaba tus labios temblaban
               Em             
Tus manos se aferraban
              Bm
A mi espalda y mas
          C                D            D<  Dsus4<  D<  Dsus4<  G5
No quiero olvidar, quisiera volver atrás


VERSO2:

G5
Soñaba verte
        Bm
Abrazada en mi
     C                          D  Dsus4  D  Dsus4  G5
Pero la bruma y la tormenta nos separó
     G5
Era solo un sueño
           Bm    
Contra eso no puedo luchar
         C                          D                          Em
Pero despierto, siempre siento que es igual

SOLO:


   
|-18----19-22-23b24r23---23--19----------|
|-------------------------------20-------|
|----------------------------------21----|
|----------------------------------------|
|----------------------------------------|
|----------------------------------------|


                    
|--------------------------------------18b19r18-------|
|-------------------------------19-/22----------20----|
|-19b21r(19)p17-19----------19------------------------|
|------------------22----19---------------------------|
|---------------------21------------------------------|
|-----------------------------------------------------|


   
|----18b19r18-------18b19r18--------------|
|-------------20-------------20-----20----|
|-21-------------21--------------21-------|
|-----------------------------------------|
|-----------------------------------------|
|-----------------------------------------|


                                                 
|-----------------------------------------------------|
|-22----------------------21-17-----------------------|
|-----------------------------------------------------|
|----17-19-19b21r19b21r19--------19b21r19-17-19-17----|
|-----------------------------------------------------|
|-----------------------------------------------------|


|-------------19-----------------|
|-------17-20----20-17-----------|
|----16----------------16--------|
|-17-----------------------17----|
|--------------------------------|
|--------------------------------|


                        
|----------19-17-19-17-20---22b23----|
|----17-20---------------------------|
|-16---------------------------------|
|------------------------------------|
|------------------------------------|
|------------------------------------|


   
|-23----22-------------22-19--------|
|----------------18b20--------20----|
|----19----19-----------------------|
|-------------19--------------------|
|-----------------------------------|
|-----------------------------------|


      
|----------------------------------|
|----------------------------------|
|-------------------19-------------|
|-19-21-17S19-19b21----20b21r20----|
|----------------------------------|
|----------------------------------|


               ~~~~~
|----17-19-22-22-22----|
|-20-------------------|
|----------------------|
|----------------------|
|----------------------|
|----------------------|





CORO2:
Em
Dame 
 C           D
sólo una noche
       Em              
Y sentirás 
C     D   
Mi amor
Em
Y mas 
   C                  D       Em
bajo la luna llena pasará
    C       D
Sobre hojas secas


CORO3:

           Em'
Y uniremos todo
         Bm    
Haciendo bien el amor
      C            D
Sin pasado, ni futuro
                 Em
Solo importa el momento
             Bm        
No existe nada mas
             C             D°        
Despues habrá lugar para hablar

FINAL:

G5    Bm    C   D   Dsus4  D*  Em*

ACORDES:

Cuerdas: 6 5 4 3 2 1
         E A D G B E

G5:      3 2 0 0 3 3
Bm:      2 2 4 4 3 2
C:       3 3 2 0 2 0
D:       0 0 0 2 3 2
Dsus4:   0 0 0 2 3 3
Em:      0 2 2 0 0 0
D*:      5 5 7 7 7 5
Em*:     7 7 9 9 8 7

°:  Significa que sólo se rasguea una vez hacia abajo.
':  Tocar rápidamente sólo hacia abajo.
': Tocar durante un tiempo y pararcon un rasgueo. 
<: Sólo se toca la primera cuerda del término

Los últimos 3 términos ( Dsus4, D*, Em*, )solo se resguean una 
vez hacia abajo, el ultimo (Em*) es un arpegio rápido hacia 
abajo. 

solo
 h   - hammer-on
 p   - pull-off
 b   - bend
 r   - bend release
 S   - shift slide
   ~   - vibrato


Espero que les guste es una buena rola





Calificar esta versión:
Aviso: Este fichero es trabajo propio de su transcriptor y representa su interpretación personal de la canción. El material contenido en esta página es para exclusivo uso privado, por lo que se prohibe su reproducción o retransmisión, así como su uso para fines comerciales.
Más versiones de Hojas Secas, Diablos Negros
Hojas Secas
acordes
Hojas Secas (ver 2)
acordes
Hojas Secas
tablatura
Descubre más canciones de Diablos Negros