Física O Química, Despistaos (tablatura)

Autor: Anónimo | 43355 visualizaciones



INTRO

1|-------------|-----------|-----------|-------------
2|-------------|-----------|-----------|-----5-------
3|----7--5-4---|-------7-4-|-------7-4-|---7---7-5-4-
4|-5---------5-|-5-4-5-----|-5-4-5-----|-5-----------
5|-------------|-----------|-----------|-------------
6|-------------|-----------|-----------|-------------

1|-------------|------------|-----------|------------
2|-------------|------------|-----------|------------
3|--4---4------|-------7-4--|-------7-4-|-5-4---4----
4|----7---5----|-5-4-5------|-5-4-5-----|-----7---5--
5|-------------|------------|-----------|------------
6|-------------|------------|-----------|------------

G
Ni me escondo ni me atrevo,
D
ni me escapo ni te espero,
Em
hago todo lo que puedo
D
pa' que estemos juntos.

G
Cada vez me importan menos
D
los que piensan que no es bueno
Em
que haga todo lo que puedo
D
pa' que estemos juntos.

C   D           Em
Medicina alternativa,
     Bm           C
tu saliva en mi saliva,
   D
es física o química.

Ni me miras ni te quiero,
ni te escucho ni te creo,
pero siento que me muero
cuando os veo juntos.

Cada vez me importas menos
o eso digo cuando debo,
o que sienta que me muero
cuando os veo juntos.

Medicina alternativa,
tu saliva en mi saliva,
es física o química.

G    D       Em      D          C
La mitad de lo que hemos vivido
   G           C
hace mas ruido,
    D
que el ruido de un cañon.
G    D    Em      D          C
Y un corazón de hielo herido
      G            C     D
se ha derretido en su colchón.

La mitad de lo que hemos vivido
hace mas ruido,
que el ruido de un cañon.
Y un corazon de hielo herido
se ha derretido en su colchon.

Puente: G  D  Em  D  C  G  C  D   x2

Medicina alternativa,
tu saliva en mi saliva,
es física o química.

La mitad de lo que hemos vivido
hace mas ruido,
que el ruido de un cañon.
Y un corazon de hielo herido
se ha derretido en su colchon.

La mitad de lo que hemos vivido
hace mas ruido,
que el ruido de un cañon.
Y un corazon de hielo herido
se ha derretido en su colchon.





Calificar esta versión:
Aviso: Este fichero es trabajo propio de su transcriptor y representa su interpretación personal de la canción. El material contenido en esta página es para exclusivo uso privado, por lo que se prohibe su reproducción o retransmisión, así como su uso para fines comerciales.
Más versiones de Física O Química, Despistaos
Física O Química
acordes
Física O Química
tablatura
Física O Química (ver 2)
tablatura
Descubre más canciones de Despistaos