Cada Dos Minutos, Despistaos (tablatura)

Autor: Anónimo | 44349 visualizaciones



Corregido el punteo del principio que escribí mal la primera vez y añadido
el solo que se marcan a mitad de la canción, que está exacto al original.

manu15paramo@hotmail.com

Intro:

- 1 vez con p.m.
- 1 vez solo el punteo
- 4 veces punteo y acordes

    F - D - A# - C
e |---------------------------|
B |---------------------------|
G |--10----10----12----12-----|
D |-----10----10----10----10--|
A |---------------------------|
E |---------------------------|


F                Dm
Cada dos minutos cambio de opinión
A#    C           F
Si me roza el corazón
F        Dm          A#    C
Con el filo de sus labios
F                          Dm
Cada dos minutos, desesperación
A#    C             F
Se acomoda en mi colchón
F      Dm        A#     C
Y casi no deja espacio


F                Dm
Cada dos minutos cambio de estación
A#  C              F
Primavera en un rincón
F       Dm         A#    C
Se atrinchera el verano
F                Dm
Cada dos minutos muere de calor
A#  C           F
Y cegado por el sol
F         Dm     A#    C
Busca un otoño mojado


A#   C
...Mojado


F                      Dm
Cada dos minutos trato de olvidar
            A#           C
Todos los momentos que pasamos
F                      Dm
Cada dos minutos, una eternidad
           A#          C
Cada dos minutos sin tocar tus manos
F                      Dm
Cada dos minutos trato de olvidar
            A#           C
Todos los momentos que pasamos
F                      Dm
Cada dos minutos, una eternidad
           A#          C
Cada dos minutos sin tocar tus manos


Solo:

e |-------------------------------|----------------------------|
B |-------------------------------|----------------------------|
G |--10--10---9-10--9-10-9--------|--------------9/10/9--------|
D |------------------------10-12--|------10*-12*--------12-10--|
A |-------------------------------|--12*-----------------------|
E |-------------------------------|----------------------------|
                                    (notas con * son muteadas)

e |--------------|--------------|-----------|--------------|
B |-------13-----|-------13-----|-------13--|-------13-----|
G |--9-10----10--|--9-10----10--|--9-10-----|--9-10----10--|
D |--------------|--------------|-----------|--------------|
A |--------------|--------------|-----------|--------------|
E |--------------|--------------|-----------|--------------|

e |--------------|-----------|--6/10-----------------------|
B |-------13-----|-------13--|--------13-11-10--10/11--10--|
G |--9-10----10--|--9-10-----|-----------------------------|
D |--------------|-----------|-----------------------------|
A |--------------|-----------|-----------------------------|
E |--------------|-----------|-----------------------------|

e |------------------------------------------|
B |------------------------------------------|
G |--12-10----10--12b14~---14--12b14b12--10--|
D |--------12--------------------------------|
A |------------------------------------------|
E |------------------------------------------|

e |---------------|---------------|---------------|----------------|
B |--13/15-15-15--|--13/15-15-15--|--13/15-15-15--|--13/15-15--15--|
G |---------------|---------------|---------------|----------------|
D |---------------|---------------|---------------|----------------|
A |---------------|---------------|---------------|----------------|
E |---------------|---------------|---------------|----------------|

e |-------------------------------------------------------------------|
B |--13/15-15--13-----------------------------------------------------|
G |---------------14-12-10----10--12b14b12--10----10-----12-12-12-12--|
D |------------------------12------------------12----12---------------|
A |-------------------------------------------------------------------|
E |-------------------------------------------------------------------|


F                Dm
Cada dos minutos pierdo la razón
A#     C          F
Me abandona la ilusión
F     Dm         A#    C
Me tropiezo y me caigo
F                 Dm
Cada dos minutos, recuperación
A#    C              F
Me despierto en el salón
F      Dm       A#    C
Y me levanto despacio


A#    C
...Despacio


F                      Dm
Cada dos minutos trato de olvidar
            A#           C
Todos los momentos que pasamos
F                      Dm
Cada dos minutos, una eternidad
           A#          C
Cada dos minutos sin tocar tus manos
F                      Dm
Cada dos minutos trato de olvidar
            A#           C
Todos los momentos que pasamos juntos
F                      Dm
Cada dos minutos, una eternidad
              A#         C            F
Sin tocar tus manos cada dos minutos





Calificar esta versión:
Aviso: Este fichero es trabajo propio de su transcriptor y representa su interpretación personal de la canción. El material contenido en esta página es para exclusivo uso privado, por lo que se prohibe su reproducción o retransmisión, así como su uso para fines comerciales.
Más versiones de Cada Dos Minutos, Despistaos
Cada Dos Minutos
acordes
Cada Dos Minutos
tablatura
Cada Dos Minutos (ver 2)
tablatura
Descubre más canciones de Despistaos