Te Mueres, Desaloon (tablatura)

Autor: Anónimo | 24774 visualizaciones

Cualquier consulta o sugerencia contactense con yo
harry_antifascista@hotmail.com
primer tema a oído que saco...Besooos a tiiii wawiii moxa,
te adoooro tbm amor.



Intro: A - E




Parte: A)

          E      D      F#m    A
        e----4------2------5------2--0---
        B--------------------------------
        G-1/4----1/2----5/6----1/2-------


          E      D      F#m    A
        e----4------2------5------2--0---
        B--------------------------------
        G-1/4----1/2----5/6----1/2-------


Parte: B)

         F#m           A
        e--5---5---5---5---5---5----
        B---------------------------
        G---6---6---6---6---6---6---

           C#m         B
        e--4---4---4---2---2---2----
        B---0---0---0---0---0---0---
        G---------------------------

         F#m           A
        e--5---5---5---5---5---5---
        B--------------------------
        G---6---6---6---6---6---6--

          C#m         B
        e-4---4---4---2---2---2----
        B--0---0---0---0---0---0---
        G--------------------------



        Coro
          F#m          C#m
        e--------12----------11---
        B--9--10-------9--10------
        G-------------------------
        D-------------------------
        A-------------------------
        E-------------------------
          Y siempre    Todo cambia
           es asi

          B
        e-------------------------
        B-12----12-----10--9------
        G-------------------------
        D----13-------------------
        A-------------------------
        E-------------------------
            sobre ti


          F#m          C#m
        e--------12----------11---
        B--9--10-------9--10------
        G-------------------------

          Y ahora te   Y el silencio
          mueres por
           volver



          B
        e-------------------------
        B-12----12-----10--9------
        G-------------------------
        D----13-------------------
        A-------------------------
        E-------------------------
            no es perder



          F#m          C#m
        e--------12----------11---
        B--9--10-------9--10------
        G-------------------------
        D-------------------------
        A-------------------------
        E-------------------------
          Y ya no sabes  Donde
          donde estás


          B                        A
        e------------------------------5---
        B-12----12-----10--9---------5-----
        G--------------------------6-------
        D----13----------------------------
        A----------------------------------
        E----------------------------------
         puedas descanzar   Ahora te mueres por volver


        Luego se vuelve a repetir parte A, B, y coro

        Parte A)...
        Parte B)...
        Coro...


        Solo:

               F#m               A
        e--------------------------
        B-------12----10-10--9-----
        G--8/9-------------------9-
        D--------------------------
        A--------------------------
        E--------------------------


               C#m               B
        e--------------------------
        B-------12----10-10--9-----
        G--8/9-------------------8-
        D--------------------------
        A--------------------------
        E--------------------------

               F#m               A
        e---------------------------
        B-------12----10-10--9---10-
        G--8/9----------------------
        D---------------------------
        A---------------------------
        E---------------------------

             C#m                    B
        e----11-7----------------11-14-
        B------------------------------
        G------------------------------
        D------------------------------
        A------------------------------
        E------------------------------




        Coro...

 Final del tema===> Y tu te mueres por volveeeer...
(desde ahí en adelante):




           F#m        A      C#m
        e------------------------------
        B--12--10--9---------12--10--9-
        G-------------9----------------

          B                  F#m        A
        e----------------------------------
        B--------------------12--10--9--10-
        G-8---10--11--13-------------------

          C#m        B                F#m-A-E
        e-------------------------------
        B-12--10--9---------------------
        G------------8---10--11--13---9-
Calificar esta versión:
Aviso: Este fichero es trabajo propio de su transcriptor y representa su interpretación personal de la canción. El material contenido en esta página es para exclusivo uso privado, por lo que se prohibe su reproducción o retransmisión, así como su uso para fines comerciales.
Más versiones de Te Mueres, Desaloon
Te Mueres
acordes
Te Mueres (ver 2)
acordes
Te Mueres
tablatura
Descubre más canciones de Desaloon