Quiero Hacerte Feliz, Desaloon (tablatura)

Autor: Anónimo | 17140 visualizaciones

intro:

Riff1:
e -----2-----2-----2-----4--2-
b ---0-----0-----0-----0------
G ----------------------------
D ----------------------------
A -2-----2-----2-----2--------
E ----------------------------

I:

D     A  B                 F#m
Cada vez, que te beso es un buen momento
D     A           Riff1
Cada vez, es cada vez...

D     A  B                 F#m
Cada vez que te sueño es un buen sueño
D     A          Riff1
Cada vez, es cada vez


CORO:
                  F#m*  B*   A*  F#m*  B*  A/F#*  A*
Quiero hacerte feliz.. oh oh oh

    F#m*  B*   A*  F#m*  B*  A/F#*  A*
Quiero hacer feliz... y nada más

II:

Riff2 (x2)
e -----2-----0-----0-----4-----5-----4------2-----2-----2----4-2-
b ---2-----0-----0-----2-----3-----2------0-----0-----0----0-----
G ---------------------------------------------------------------
D -------------------------0-------------------------------------
A -0-----0-----2-----0-----------0------2-----2-----2-----2------
E ---------------------------------------------------------------

Cada vez, que te toco es más que eso
Cada vez, es cada vez
Cada vez, que comienzo es sólo eso
Cada vez me enamore....

CORO (x2)

inter:

E    Bm                 E               A   E
     Si tu sabes que no siento nada por ella (x2)

Bm                 E               A  E      A  E
Si tu sabes que no siento nada por ella, por ella


CORO (x4)



Acordes:

F#m*: x x x 11 10 9
Bm* : x x x 7  7  7
A*  : x x x 6  5  5
A/F#: x x x 11 10 12



este tema es mas completo q el anterior, ojala se les haga facil.
cualquier duda o consulta escribanme al mail.
ahh y este tema va dedicado a una ratoncita loca.
xuzz!
Calificar esta versión:
Aviso: Este fichero es trabajo propio de su transcriptor y representa su interpretación personal de la canción. El material contenido en esta página es para exclusivo uso privado, por lo que se prohibe su reproducción o retransmisión, así como su uso para fines comerciales.
Más versiones de Quiero Hacerte Feliz, Desaloon
Quiero Hacerte Feliz
acordes
Quiero Hacerte Feliz
tablatura
Descubre más canciones de Desaloon