Fuí Feliz, Desaloon (bajo)

Autor: Anónimo | 36758 visualizaciones

esta canción es muy buena solo disfuten esta tab.

Fui feliz.................
esta parte es el intro se toka solo una vez al comienzo de la song.
(los tiempos acomdenlos uds)
g---------------------------------------------------------------------------
d--------------------------------------------------------------------4-5-4--
a--------------4-5-4--------------------5-3-3-33303333330-5-5-5550555-----5-
e-5-5-555555-5-------5-3-3-3333333-3-5-3------------------------------------
   La                    Sol               Do              Re

Verso: Muchas gracias por venir......

g-----------------------------------
d-----------------------------------
a-----------------2-2-22-0222-02-02-
e-00-0-3-5-000000-------------------
     mi            si

Verso:muchas gracias fui feliz....

g-----------------------------------
d-----------------------------------
a-----------------2-2-22-0222-02-02-
e-00-0-3-5-000000-------------------
     mi            si

Verso:y aunque he roto el corazón...........y wea

g----------------------------------------------------------
d---------------------------------------------------4-5-4--
a-----------------2-2-22-0222-02-02-5-5550555555555------5-
e-00-0-3-5-000000------------------------------------------
     mi            si                 re

Despues la segunda estrofa es = a la primera.(recuerden que los tiempos los acomodan uds)

Coro.Muchas gracias por venir

g-----------------------------------------------
d-----------------------------------------------
a-----------------------------------------------
e-5-5-5-5-12-12-12-12-0-7-7-7-7-9-10-10-10-10-0-
    la          mi         si           re

al final del coro se le agrega esto

a-545454-545454-

La song termina en La.Ahi uds la ordenan y la tokan ke es lo principal.
Muy buen acnción y eso .
Salusos para mis amigos Fito Maicol Oscar Edu Lulo y pa toos los ke me conocen.
DESDE mi banda.
Calificar esta versión:
Aviso: Este fichero es trabajo propio de su transcriptor y representa su interpretación personal de la canción. El material contenido en esta página es para exclusivo uso privado, por lo que se prohibe su reproducción o retransmisión, así como su uso para fines comerciales.
Más versiones de Fuí Feliz, Desaloon
Fuí Feliz
acordes
Fuí Feliz
bajo
Descubre más canciones de Desaloon