Déjalo, Desaloon (bajo)

Autor: Anónimo | 41015 visualizaciones

Verso (0:11)
G|---------------------------------------------------|
D|---------------------------------------------4-7---|
A|-----------4-7-----------------------5-5---5-----5-|
E|-3-5-5---5-----5---5-2-2---2-0-0---0---------------|

Precoro (0:18)
G|-------------------------------------------------------|
D|-----------4------------6------------------------4-7---|
A|-4-5-5-5-5----5-7-7-7-7---7---------------5-5--5-----5-|x2
E|----------------------------2-2--2-0-0--0--------------|

G|----------|
D|----------|
A|-4-5~--7~-|
E|----------|

Coro (0:40)
G|----------------------------|
D|----------------------------|
A|---5--7-7-5-4----5--7-5-4---|
E|-4-------------7----------7-|

Verso x2

Precoro

Coro x2

Puente (2:06)
G|--------|
D|--------|
A|-5~--7~-|
E|--------|

G|---------------------------------------------------|
D|---------------------------------------------4-7---|
A|-----------4-7-----------------------5-5---5-----5-|x2
E|-3-5-5---5-----5---5-2-2---2-0-0---0---------------|

Precoro

Coro x2

Coro Final (3:10)
G|-----------------------------------|
D|-----------------------------------|
A|---------5-5-5-5---------7-7-5-4---|
E|-5-5-5-5---------7-7-7-7---------7-|

G|--------|
D|--------|
A|-5~--7~-|
E|--------|
Calificar esta versión:
Aviso: Este fichero es trabajo propio de su transcriptor y representa su interpretación personal de la canción. El material contenido en esta página es para exclusivo uso privado, por lo que se prohibe su reproducción o retransmisión, así como su uso para fines comerciales.
Más versiones de Déjalo, Desaloon
Déjalo
acordes
Déjalo
bajo
Descubre más canciones de Desaloon