Entre La Guerra Y El Amor, Delux (bajo)

Autor: SMDP | 27259 visualizaciones



INTRO
G|---------------------------------------------------------|
D|---------------------------------------------------------|
A|-----5-5-5-5-5-5-5-5-5-5-5-5-----7-7-7-7-7-7-7-7-7-7-7-7-|
E|-0-2-------------------------0-2-------------------------|

VERSO 1  Entierrame deja sofocar mi realidad..
G|--------------------------|
D|--------------------------|
A|-5-5--5-------------------|
E|--------5-5-5-2-2-2-0-0-0-|X2

PRECORO Una razón para k siga...Una esperanza una salida
G|------------------------------------------|
D|------------------------------------------|
A|-5-5-5-5-5--------------------------------|
E|------------5-5-5-5-5-2-2-2-2-2-0-0-0-0-0-|X2


CORO "Hey Hey" Hey Hey Llego El momento de encender
G|-----------------------------------------|
D|-----------------------------------------|
A|-5-5-5-5-5-------------------------------|
E|-----------0-0-0-0-0-2-2-2-2-2-5-5-5-5-5-|X4


INTRO
VERSO X2

PRE-CORO X2
CORO X 4

INTERMEDIO
G|------------------------------------|
D|------------------------------------|
A|-5----------------5-----------------|
E|----------0-----------------2-----5-|X2 DEJAR SONANDO

G|-----------------------------------|
D|-----------------------------------|
A|-9-(X8)/-11-(X8)/-12-(X8)-11(X5)---|
E|-----------------------------------|

G|---------------------------------|
D|---------------------------------|
A|---------------------------------|
E|-2-(X8/)-4(X8)/-9(x5)/-12(x4)-10-|


CORO X8
INTRO
FIN






Calificar esta versión:
Aviso: Este fichero es trabajo propio de su transcriptor y representa su interpretación personal de la canción. El material contenido en esta página es para exclusivo uso privado, por lo que se prohibe su reproducción o retransmisión, así como su uso para fines comerciales.
Más versiones de Entre La Guerra Y El Amor, Delux
Entre La Guerra Y El Amor
acordes
Entre La Guerra Y El Amor
bajo
Descubre más canciones de Delux