Smoke On The Water, Deep Purple (tablatura) (ver 4)

Autor: lave_kiss | 39919 visualizaciones

Riff A                                                       

|-------------------|-------------------|--------------------|----------|
|--------------*----|----------------*--|--------------*-----|-------*--|
:--------------X----|----------------X--|--------------X-----|-------X--:
:-5---8---10------5-|---8---11--10------|--5---8---10-----8--|---5------:
|-5---8---10------5-|---8---11--10------|--5---8---10-----8--|---5------|
|-------------------|-------------------|--------------------|---3------|
 (* Hit pick ups with palm of right hand)



                              1st Verse

 6. Rh. Fill 1  (We  all came out to........)

|-------------------|------------------------|----------|---------------|
|-------------------|------------------------|----------|---------------|
|-------------------|------------------------|-----%----|---------------|
|----5--------------|------5----------5------|-----%----|------5------3-|
|----5----------10-|----5 ----------5--------|----------|----5------3---|
|----3--------------|--3----------3----------|----------|--3------1-----|
     >        >              .          .                       .         .



(line                   to ...  mo - bile,_____                 we didnt)
|-----------------------|-------|-----------------------|---------------|
|-----------------------|-------|-----------------------|---------------|
|-----------------------|---%---|------------------(3)--|---------------|
|------5--------5-------|---%---|--------5----------5---|--------5-----3|
|----5---------5--------|-------|-----5----------5------|-----5-----3-3-|
|--3---------3----------|-------|--3----------3---------|--3---------1--|
         .          .                    .  >.                     .


(have much time       But Frank.....     Mothers.....     at the best...)
-------------------|--------------------|-------------------|-----------|
-------------------|--------------------|-------------------|-----------|
-------------------|--------------------|-------------------|-----------|
-------5---------5-|-------5---------5--|-------------------|-------5--3|
----5------5--5----|----5------5--5-----|-5--5--5---5--5--5-|-5--5--3---|
-3---------3-------|-3---------3--3-----|-3--3--3---3--3--3-|-3--------1|



                  



 

(   But some .......  flare  gun         burned...........)
-------------------|--------------------|-------------------|-----------|
-------------------|--------------------|-------------------|-----------|
-------------------|--------------------|-------------------|-----------|
-------5-----------|-------5---------5--|-5---------------5-|-------5--3|
-5--5------5--5--5-|----5---------5-----|-5--5---------5----|----5--3---|
-3---------3-----3-|-3---------3--------|-------3---3-------|-3--------1|


_______________________
        end Rhy Fig 1 

----------------------||
----------------------||
----------------------||
-------3h5---------5--||
-5--5-----------5-----||
-3-----------3--------||
         .         .


Chorus
(Smoke   on..  wa  --   ter  -- a fire..    Smoke     on.. wa  --  ter--)

|  Riff B.                                                                    
--------------|--------------|---------|--------|--------------|--------|
--------------|--------------|---------|--------|--------------|--------|
---------5----|--------------|---------|--------|---------5----|--------|
-----5--------|---------6----|---------|--------|-----5--------|---6---X|
-3------------|-----6--------|-----5---|-(5)----|-3------------|-----6--|
--------------|-4------------|-3-------|--------|--------------|-4------|



Riff A


Riff A, 1st 3 bars + Rhy Fill 1


-------------------------------------------------------------------------

2nd Verse

Rhy. Fig 1


------------------------------------------------------------------------------
Chorus

Riff B


Riff A


Riff A, 1st 3 bars + Rhy Fill 1
-------------------------------------------------------------------------------
Solo  (With 2nd guitar playing 16 bars similar to Rhy Fig 1)


  RH      Q   Q
|----------------|
|----------------|  (Played over last bar, Rhy Fill 1)
|----------------|  (Played with neck pickup)
|---------12--15-|  (2nd guitar comes in after this bar)
|----------------|
|----------------|


|-------------------------|--------------------------|------------------|
|----------------13gfr(13)p11q-----------11t-X-X-----|----12-15-15f~~~~~-15-14-|
|--12~~~~~~~-X------------|----12wwwwwwww----X-X--12-|-15---------------|
|-------------------------|--------------------------|------------------|
|-------------------------|--------------------------|------------------|
|-------------------------|--------------------------|------------------|


|---------------------------------|---------------------------------|
|---------------------------------|-------------------------------8-|
|-12-14--12h14p1210--12-10--8-10-|-10-10gf10gh10gf(10)~~~~~--X-----|
|---------------------------------|---------------------------X-----|
|---------------------------------|---------------------------------|
|---------------------------------|---------------------------------|


|----------------~~~~~~~--8---------|------8-----------------------------
|-11--11gf11--11gf--------11--8--11-|----8---11-10-8---------------------
|-----------------------------------|-10f-------------11-10p8----10-8-7p5
|-----------------------------------|-------------------------10----8-7--
|-----------------------------------|------------------------------------
|-----------------------------------|------------------------------------




|-------------------------|------------------------|-----------------/-|
|-------------------------|------------------------|----------------/--|
|----------5-----8--7--5--|-3fr-(3)~~~~-5--3--2--3-|-2--3--2--0-----(0)-|
|-5--8--7-----8-----------|------------------------|--------------------|
|-------------------------|------------------------|--------------------|
|-------------------------|------------------------|--------------------|







. .  .  .  .  .  .  .  .     >          .  .  .  .   .  .  .  > (drop pitch
                                                                2.5 steps with
                                                                trem and return
                                                                to pitch)


                        behind              Gradual                   Gradual
                        beat--|       3      Bend                      Bend

|-----3h--3-3-------------------|-----------------------|-3--------3--6--8f-|
|---3---6h----6-5p3-------------|------------------3--6-|----3--6-------|
|-5f----------------6p5-3---5-3-|-5f--5f--5f--5f--------|---------------|
|-------------------------5-----|-----------------------|---------------|
|-------------------------------|-----------------------|---------------|
|-------------------------------|-----------------------|---------------|



|-8h-8--6--8---------------|---------8-------8---8--10-|-11-13-13f~~~~13|
|-------------8~~~~~~~~--8-|-11----8---11--8---11------|----------------|
|--------------------------|----10h--------------------|----------------|
|--------------------------|---------------------------|----------------|
|--------------------------|---------------------------|----------------|
|--------------------------|---------------------------|----------------|


|(13)f13-13f13-13fwwww-13-|13gf13-10---------------|--------------------|
|-------------------------|----------13-13f~~~~~~~-|----6---------------|
|-------------------------|------------------------|-5f----5ghr3q--5--3h|
|-------------------------|------------------------|------------------5-|
|-------------------------|------------------------|--------------------|
|-------------------------|------------------------|--------------------|
                                                           
Half Ghost bend 
 
Quarter Half  and release       bend    bend



                  Bridge pickup, guitar 2 plays Riff A

|-----8--6--8--8----|(8)f8--8--8h-f8--8--8-|-8--8--8--8----8q-----|
|-/8----------------|----------------------|--------------------6-|
|-------------------|----------------------|----------------------|
|-------------------|----------------------|----------------------|
|-------------------|----------------------|----------------------|
|-------------------|----------------------|----------------------|


Grad bend        1/2 Release               Release bend to
bend, and re-bend         quarter




|------------------------|-----------------------------|
|(6)---(6)f---(6)~~~~~~~~|~(6)~~~~~~~~~~~--------------|
|------------------------|-----------------------------|
|------------------------|-----------------------------|
|------------------------|-----------------------------|
|------------------------|-----------------------------|



Riff A - first 3 bars

Rhy. Fill 1


-------------------------------------------------------------------------
Verse 3


Rhy Fig 1. - first 12 bars


Palm Mute-------------------------------------------------------

|-------------------------------|-------------------------------|
|-------------------------------|-------------------------------|
|-------------------------------|-------------------------------|
|---------5---------------5-----|---------5---------------5-----|
|-----5-------x-------5-------5-|-----5-------5-------5-------5-|
|-3---------------3-------------|-3---------------3-------------|




Palm Mute-------------------------------------------------------

|-------------------------------|-------------------------------|
|-------------------------------|-------------------------------|
|-------------------------------|-------------------------------|
|---------5---------------3-----|---------5---------------5-----|
|-----5-------5-------3-------3-|-----5-------5-------5---------|
|-3---------------1-------------|-3---------------3-----------3-|


-------------------------------------------------------------------------







Chorus (Variation:)


Let ring throughtout:

|-------------------|-------------------|-------------------|-----------|
|-------------------|-------------------|-------------------|-----------|
|-----------5-------|-------------------|-------------------|-----------|
|------5------------|-----------6-------|-------------------|-----------|
|-3-----------------|------6------------|----------5--------|(5)--------|
|-------------------|-4-----------------|-3----3------------|-----------|



 
|-------------------|-------------------|
|-------------------|-------------------|
|-----------5-------|-------------------|
|------5------------|-----------6-------|
|-3-----------------|------6------------|
|-------------------|-4-----------------|

Riff A - four times



-------------------------------------------------------------------------
Outro - Organ Solo


 
|-------------------|------------|-----------------------|
|-------------------|------------|-----------------------|
|-------3-----------|------%-----|-3---------------------|
|-3--5--3--3--5-----|------%-----|-3--5--3--5------3-----|
|-3--5-----3--5-----|------------|----5--3--5------3--5--|
|-------------------|------------|-----------------------|



|----------------------|----------------------|----------------------|
|----------------------|----------------------|----------------------|
|-3--------------------|-3--------------------|-3h-5-----------------|
|-3--5--3--5------3--5-|-3--5--3--5------3--5-|-3h-5--3--5-----3-----|
|----5--3--5------3--5-|----5--3--5------3--5-|-------3--5-----3--5--|
|----------------------|----------------------|----------------------|
                        







                           




Begin to fade.......



|------------------------|-------------------------|---------------------|
|------------------------|-------------------------|---------------------|
|-3----------------------|-------------------------|---------------------|
|-3--5--3--5-----5-----5-|-----5-----5-----5--3--4-|-5----5----5----5--5-|
|----5--3--5-----5-----5-|-----5-----5-----5--3--4-|-5----5----5----5--5-|
|------------------------|-------------------------|---------------------|


|-------------------------|------------------------|--------------------|
|-------------------------|------------------------|--------------------|
|-------------------------|-3----------------------|--------------------|
|-----5-----5-----5-----5-|-3--5--3--5-----5-----5-|-----5-----5-----5-5|
|-----5-----5-----5-----5-|----5--3--5-----5-----5-|-----5-----5-----5-5|
|-------------------------|------------------------|--------------------|


We all came out to Montreux
On the Lake Geneva shoreline
To make records with a mobile
We didn't have much time
Frank Zappa and the Mothers
Were at the best place around
But some stupid with a flare gun
Burned the place to the ground
Smoke on the water, fire in the sky


They burned down the gambling house
It died with an awful sound
Funky & Claude was running in and out
Pulling kids out the ground
When it all was over
We had to find another place
But Swiss time was running out
It seemed that we would lose the race
Smoke on the water, fire in the sky


We ended up at the Grand Hotel
It was empty cold and bare
But with the Rolling truck Stones thing just outside
Making our music there
With a few red lights and a few old beds
We make a place to sweat
No matter what we get out of this
I know we'll never forget
Smoke on the water, fire in the sky
Calificar esta versión:
Aviso: Este fichero es trabajo propio de su transcriptor y representa su interpretación personal de la canción. El material contenido en esta página es para exclusivo uso privado, por lo que se prohibe su reproducción o retransmisión, así como su uso para fines comerciales.
Más versiones de Smoke On The Water, Deep Purple
Smoke On The Water
acordes
Smoke On The Water (ver 2)
acordes
Smoke On The Water
tablatura
Smoke On The Water (ver 2)
tablatura
Smoke On The Water (ver 3)
tablatura
Smoke On The Water (ver 4)
tablatura
Smoke On The Water (ver 5)
tablatura
Smoke On The Water (ver 6)
tablatura
Smoke On The Water (ver 7)
tablatura
Smoke On The Water (ver 8)
tablatura
Smoke On The Water
bajo
Smoke On The Water
video guitarra
Descubre más canciones de Deep Purple