Black Night, Deep Purple (tablatura)

Autor: FbTotti | 18422 visualizaciones

Riff 1:

e |----------------------------------|
B |----------------------------------|
G |----------------------------------|
D |---5-----------5---7-5--------5---|
A |-7---7-5---7-5---7-----7--5-7---7-|
E |---------7------------------------|





Riff 2:

e |---------------------------|
B |---------------------------|
G |---------------------------|
D |---------------------------|
A |-7-5---5---5-9-7-5-7-5-----|
E |-----7---7-------------7-5-|
Calificar esta versión:
Aviso: Este fichero es trabajo propio de su transcriptor y representa su interpretación personal de la canción. El material contenido en esta página es para exclusivo uso privado, por lo que se prohibe su reproducción o retransmisión, así como su uso para fines comerciales.
Más versiones de Black Night, Deep Purple
Black Night
tablatura
Black Night (ver 2)
tablatura
Black Night (ver 3)
tablatura
Descubre más canciones de Deep Purple