Veredas, De La Gran Piñata (dlgp) (tablatura)

Autor: [anoni]Maru[anoni] | 43967 visualizaciones



Intro:

   G5           G5          G5            G5
e--------10-----------10-----------10-----------10---
B------8----8-------8----8-------8----8-------8----8-
G----0------------0------------0------------0--------
D----------------------------------------------------
A--10-----------10-----------10-----------10---------
E----------------------------------------------------

*********************************************************************

Arpegio principal:

   G5           G5           G5           G5
6--------10-----------10-----------10-----------10---
5------8----8-------8----8-------8----8-------8----8-
4----0------------0------------0------------0--------
3----------------------------------------------------
2--10-----------10-----------10-----------10---------
1----------------------------------------------------

  Csus2         Csus2        G5           G5
6--------10-----------10-----------10-----------10---
5------8----8-------8----8-------8----8-------8----8-
4----0------------0------------0------------0--------
3-10------------10-----------------------------------
2----------------------------10-----------10---------
1----------------------------------------------------

   Csus2        Csus2        Csus2        Csus2
6--------10-----------10-----------10-----------10---
5------8----8-------8----8-------8----8-------8----8-
4----0------------0------------0------------0--------
3--10-----------10-----------10-----------10---------
2----------------------------------------------------
1----------------------------------------------------

   G5           G5           Dsus4        Dsus4
6--------10-----------10-----------10-----------10---
5------8----8-------8----8-------8----8-------8----8-
4----0------------0------------0------------0--------
3----------------------------0------------0----------
2--10-----------10-----------------------------------
1----------------------------------------------------

   Em7          Em7          Em7          Em7
6--------10-----------10-----------10-----------10---+
5------8----8-------8----8-------8----8-------8----8-+
4----0------------0------------0------------0--------+
3----------------------------------------------------+
2----------------------------------------------------+
1--0------------0------------0------------0----------+


*********************************************************************

Arpegio puente

   G#m          G#m          F#7sus4       F#7sus4
6--0---0---0----0---0---0-----------0------------0-----
5--0---0---0----0---0---0---------0---0--------0---0---
4--4---4---4----4---4---4-------3------------3---------
3--6---6---6----6---6---6------------------------------
2------------------------------------------------------
1--4---4---4----4---4---4-----2------------2-----------

   G#m          G#m          F#7sus4      F#7sus4
6--------0------------0------------0------------0-----  \
5------0---0--------0---0--------0---0--------0---0---   |
4----4------------4------------3------------3---------   | x2
3-----------------------------------------------------   |
2-----------------------------------------------------   |
1--4------------4------------2------------2-----------  /

   G#m          G#m          Cmaj7        Cmaj7
6--------0------------0------------0------------0-----
5------0---0--------0---0--------0---0--------0---0---
4----4------------4------------4------------4---------
3-----------------------------------------------------
2-----------------------------------------------------
1--4------------4------------3------------3-----------

*********************************************************************

Solo

   G5           G5           G5           G5
6--------10-----------10-----------10----------------
5------8----8-------8----8-------8----8--------------
4----0------------0------------0---------------------
3----------------------------------------------------
2--10-----------10-----------10-----------10----9----
1----------------------------------------------------

  F             F             Am             Am
6-----------------------------------------------------------
5---------10------------10------------13--------------13----
4------10----10------10----10------14----14--------14----14-
3---10------------10-------------14-------------14----------
2-8-------------8--------------0--------------0-------------
1-----------------------------------------------------------

  G             G            Gsus4          G
6----------------------------------------------------
5---------12------------12----------13----------12---
4------12----12------12----12----12----12-----12---12
3---12------------12-----------12-----------12-------
2-10------------10-----------10------------10--------
1----------------------------------------------------

Después sigue haciendo los mimos acordes pero rasgueando..

*********************************************************************

Intro

Arpegio verso
De vereda a vereda y sin cordón,
se está jugando el milagro del dia.
Escupe una sonrisa de ojos negros
y sueña que esta noche una alma buena
la arranque del bar.

Arpegio verso
Es 29, y febrero
le arranca el hígado a los distraídos.
Pero cuando unos ojos te miran así,
difícil darse cuenta de qué lado
se agarra el puñal.


Arpegio puente
Quizás vivas un cuento de hadas
en castillos de cartas marcadas
quizás no tenga premio quien juegue su mano peor.

E    F#5      G#5       Aadd9     Badd11
Y pensar que pensaban que nada importaba....
G              C                     F              D
Y que había tanto por perder, que nunca apostaron nada.

G      C       D
Y no se lastimaron,
G      C       D
no llegaron a nada.
G      C       D
No tuvieron los huevos
G      C       D
para quererse como se quiere
C                D                    G
cuando se quiere tanto que te hace doler...


Arpegio verso (solo los primeros 8 compases)
Es 29, y febrero
le arranca el hígado a los distraídos.

6------------------------
5------------------------
4------------------------
3---2---4---5---2--4--5--
2---2---4---5---2--4--5--
1---0---2---3---0--2--3--

Arpegio puente
Quizás vivas un cuento de hadas
en castillos de cartas marcadas
quizás no tenga premio quien juegue su mano peor.

E    F#5      G#5       Aadd9     Badd11
Y pensar que pensaban que nada importaba....
G              C                     F              D
Y que había tanto por perder, que nunca apostaron nada.

G      C       D
Y no se lastimaron,
G      C       D
no llegaron a nada.
G      C       D
No tuvieron los huevos
G      C       D
para quererse como se quiere
C                D                    G
cuando se quiere tanto que te hace doler...


solo





Calificar esta versión:
Aviso: Este fichero es trabajo propio de su transcriptor y representa su interpretación personal de la canción. El material contenido en esta página es para exclusivo uso privado, por lo que se prohibe su reproducción o retransmisión, así como su uso para fines comerciales.
Más versiones de Veredas, De La Gran Piñata (dlgp)
Veredas
acordes
Veredas
tablatura
Descubre más canciones de De La Gran Piñata (dlgp)