Anguilita, De La Gran Piñata (dlgp) (tablatura)

Autor: [anoni]Maru[anoni] | 23358 visualizaciones



Solo:

             G                             Cadd9
-----------------3------------------|-----3---------------------
-----------------3------------------|-----3---------------------
-----------------0------------------|-----0---------------------
-----------------0------------------|-----2--------2p0-(2)------
--0h2p0----0-0h2-2-0-0-2-2h3-2-0----|-0h3-3--3p2-3--------------
---------3-----------------------(3)|---------------------------

             Em                             Cadd9
-------(15)-----(14)-----(12)|---------(15)-----(14)------(12)--
-----------------------------|----------------------------------
--14s16----16s14----14s12----|-14-14s16----16s14----14s12-------
-----------------------------|----------------------------------
-----------------------------|----------------------------------
-----------------------------|----------------------------------

        D
-------------------------(8)-------------------------------------
--------10-------8-------(7)-----7-----8------(10)---------------
--10s11-----11s9----9-7--(7)--6s7---8s9---9s11(11)---------------
-----------------------------------------------------------------
-----------------------------------------------------------------
-----------------------------------------------------------------

Acorde Cadd9:

     EADGBe
     x32033





Comentarios del colaborador: vamos por mas ♥

Calificar esta versión:
Aviso: Este fichero es trabajo propio de su transcriptor y representa su interpretación personal de la canción. El material contenido en esta página es para exclusivo uso privado, por lo que se prohibe su reproducción o retransmisión, así como su uso para fines comerciales.
Más versiones de Anguilita, De La Gran Piñata (dlgp)
Anguilita
acordes
Anguilita (ver 2)
acordes
Anguilita
tablatura
Descubre más canciones de De La Gran Piñata (dlgp)