Libre Soy, David Scarpeta (tablatura)

Autor: Anónimo | 16696 visualizaciones



Hola
Este es el solo de libre soy de David Scarpeta

e:-------------------------------------
B:--10-10/15-12-10--8-7-8--------------
G:-------------------------------------  X2


e:-------------------------------------
B:-10--8-7-8---10----------------------
G:------------------------------------- X3


e:-----9----10----12----10----9--------
B:--10---10----10----10----10----------
G:------------------------------------- X2


e:-12-10-10-12-10-10-12-10-12-10-10-12-10-10-12-10---
B:---------------------------------------------------
G:---------------------------------------------------


e:--9-10-12-10-9--9-10-12--14--17--------------------
B:---------------------------------------------------
G:---------------------------------------------------

e:--9----------------------------------9-----9----------
B:-----9--8---7----------------------9---7-9------------
G:---------------7-----------------7--------------------
D:-----------------7--5--4----6--8----------------------
A:-------------------------5----------------------------

Ese Fue el Solo
Ahora esta es la parte final

e:--14-12-14-17-14-12--14-------------------------------
B:------------------------------------------------------ X2
G:------------------------------------------------------

e:--10-10--14-15--20---------
B:--------------------------- X3
G:---------------------------

e:-14----14-15--10---------
B:----15-------------------
G:-------------------------

Y eso es Todo
Dios los bendiga!!!
Kevin14moon





Calificar esta versión:
Aviso: Este fichero es trabajo propio de su transcriptor y representa su interpretación personal de la canción. El material contenido en esta página es para exclusivo uso privado, por lo que se prohibe su reproducción o retransmisión, así como su uso para fines comerciales.
Más versiones de Libre Soy, David Scarpeta
Libre Soy
acordes
Libre Soy
tablatura
Descubre más canciones de David Scarpeta