Himno De Victoria, Danny Berríos (tablatura)

Autor: Anónimo | 46386 visualizaciones



jesus david camargo : [email protected]
**********************************************************************

Este es el intro de la guitarra!
Es un pequeño arreglo!

 s= slide (deslizar)
e------------------------------
B-------10------10s12----10----
G-----9-------7-------------9--
D--11------11------------------
A------------------------------
E------------------------------

e-------------------------------------------------------------
B-------10------10s12-----------------------------------------
G-----9-------7---------11-1313s14--9-11s13--9-11-------------
D--11------11-------------------------------------------------
A-------------------------------------------------------------
E-------------------------------------------------------------

bueno esta esta es la version corregida
que DIos les bendiga y un saludo muy especial
 a la iglesia cristiana mision internacional
rescatando de barranquilla colombia !!estamos en gloria!!!





Calificar esta versión:
Aviso: Este fichero es trabajo propio de su transcriptor y representa su interpretación personal de la canción. El material contenido en esta página es para exclusivo uso privado, por lo que se prohibe su reproducción o retransmisión, así como su uso para fines comerciales.
Más versiones de Himno De Victoria, Danny Berríos
Himno De Victoria
acordes
Himno De Victoria
tablatura
Descubre más canciones de Danny Berríos