Todopoderoso, Danilo Montero (bajo)

Autor: Anónimo | 43799 visualizaciones

OJO QUE ES LA VERSION REMIX DE LA CANCION , NO DE LA NORMAL
es la primra cancion que la saco a oido
y creo que esta mejor que las demas,
spero que les sirva auds. y a sus comunidades
estas lineas "|",la verdad no se par que es,
las tomo como un mometo de spera largo,
y los numeros los pongo con una separacion
que yo veo conveniente
no utilizo trastes mayores al 10, prefiero bajar subir en cuerdas,
asi que si ven numeros seguidos como 12 o 11
quiere decir que se repiten 1-1, de manera rapida
la verdad no espero les guste o no¡
spero que este bien
jiji, bueno q tb les guste

intro

A|---------3-|-----------------|
E|-2--4--5---|-5--7--9--7--8-7-|
D|-----------|-----------------|
G|-----------|-----------------|

E|---------3-|------------|
A|-2--4--5---|-5--7--9--7-|
D|-----------|------------|
G|-----------|------------|

estrofa

E|-----------3-3-3-03-|--------------------|
A|-2-2-2-020----------|-------2-2-0-0-0-00-| x2
D|--------------------|-0-0-0--0-----------|
G|--------------------|--------------------|

E|------------3-3-44-5-6-|------------55-77-8-9-|
A|-2-2-33-4-5------------|-5-5-77-8-9-----------|
D|-----------------------|----------------------|
G|-----------------------|----------------------|

E|------------3-3-44-5-6-|------------55-55-5-5-|
A|-2-2-33-4-5------------|-5-5-77-8-9-----------|
D|-----------------------|----------------------|
G|-----------------------|----------------------|

coro

E|--------3------------|
A|-2--2-1-----5--5-3-0-| x4
D|---------------------|
G|---------------------|

solo

E|-------------|-------------|
A|-2-------2-2-|-2-------2-2-| x3
D|---0-2-0-----|---2-0-2-----|
G|-------------|-------------|

E|-2-------2-2-|-2-|
A|---0-2-0-----|---|
D|-------------|---|
G|-------------|---|

sube de tono coro

E|-------5-|---------|
A|-4-6-7---|---------| x4
D|---------|-2-4-6-4-|
G|---------|---------|

2de voz

E|-------5-|---------|-------5-|---------|
A|-4-6-7---|---3-0---|-4-6-7---|---------| x2
D|---------|-2-----0-|---------|-2-4-6-4-|
G|---------|---------|---------|---------|

final

E|-------33-33-------55-55-|
A|-22-22-------55-55-------| x4
D|-------------------------|
G|-------------------------|

E|---|
A|-2-|
D|---|
G|---|

orden

1. intro
2. estrofa
3. coro B
4. estroga
5. coro B
6. solo
7. coro C#
8. coro en 2da voz
9. final
----------------------------------------------------------------
SALUDOS, a los chic@s del ODB (Oratorio Don Bosco) de el prado
de mi queridisima la paz - bolivia
y a todos los salesianos en bolivia
comentarios a mi correo miauricio_gatolar@hotmail.com
porsiaca soy muy nuevo, no se enojen
chau te cuidas
Aviso: Este fichero es trabajo propio de su transcriptor y representa su interpretación personal de la canción. El material contenido en esta página es para exclusivo uso privado, por lo que se prohibe su reproducción o retransmisión, así como su uso para fines comerciales.

Comentarios en Facebook: