Solo Jesus Esta En Mi, Danilo Montero (bajo)

Autor: Anonimo | 32212 visualizaciones

Clave:    ::h=Hammer::

:Intro:

G]:--------------8:12-------------:10-------------:15--15--10-h15----15:
D]:----------10---:---------------:---------------:--------------------:
A]:---------------:---------------:---------------:--------------------:
E]:---------------:---------------:---------------:--------------------:

G]:--------------8:12-------10-h12:10------------8:8------------:
D]:----------10---:---------------:---------------:-------------:
A]:---------------:---------------:---------------:-------------:
E]:---------------:---------------:---------------:-------------:

:Estrofa 1:
:Estrofa 2:
:Coro 1:

Para todo aquel...

G]:-------------:---------------:-------------:------------:
D]:-------------:---------------:-------------:------------:
A]:-------------:---------------:-----2-2-----:3-----------:
E]:4-----------4:4--------------:3------------:------------:

Solo Jesus q esta...

G]:-------------:---------------:-----------:---------:----------:------:
D]:-------------:---------------:-----------:--------1:3---------:------:
A]:-------------:---------------:-----------:3--------:-------5--:------:
E]:4------------:4--------------:3-5-4------:---------:----------:6-----:

:Intro:
:Estrofa 1:
:Estrofa 2:
:Coro 2:

Para todo aquel...

G]:-------------:---------------:-------------:------------:
D]:-------------:---------------:-------------:------------:
A]:-------------:---------------:-----2-2-----:3-----------:
E]:4-----------4:4--------------:3------------:------------:

Solo Jesus q esta...

G]:-------------:---------------:--------------:----------:
D]:-------------:---------------:-------------1:3---------:
A]:-------------:---------------:--------3-----:---------5:
E]:4------------:4--------------:3-5-4---------:----------:

y necesidad...

G]:-----------:------------:-------------:
D]:-----------:------------:-------------:
A]:-----------:6----------6:5-3----------:
E]:6----------:------------:----1-3------:

:Coro 3:

Para todo aquel...

G]:-------------:---------------:-------------:------------:
D]:-------------:---------------:-------------:-------5-7-8:
A]:-------------:---------------:-----2-2-----:3-----------:
E]:4-----------4:4--------------:3------------:------------:

Solo Jesus q esta...

G]:-------------:---------------:-------------:------------:
D]:-------------:--------------6:-------------:-----------1:
A]:-------------:---------------:-------------:3-----------:
E]:4---------4-4:4-----4-4------:3--5--4------:------------:

toda excusa...

G]:-------------:------------:-------------:------------:
D]:-------------:3-----------:-------------:------------:
A]:-------------:-----------5:-------------:6-----------:
E]:-------------:------------:6------------:------------:


:Final:

G]:-------------8:12----------12:10--------:15--15--15-h17----15:------:15--------:
D]:---------10---:--------------:----------:--------------------:------:----------:
A]:--------------:--------------:----------:--------------------:------:----------:
E]:--------------:--------------:----------:--------------------:------:----------:

Fuente original: LaCuerda
Colaborador original: Joel Junior Lopez Albornoz [Bass_Music_Composite@hotmail.com]
Aviso: Este fichero es trabajo propio de su transcriptor y representa su interpretación personal de la canción. El material contenido en esta página es para exclusivo uso privado, por lo que se prohibe su reproducción o retransmisión, así como su uso para fines comerciales.

Comentarios en Facebook: