Saltando, Danilo Montero (tablatura)

Autor: Anónimo | 40395 visualizaciones

(Tune down a ½ step)
Intro: // Em - C/G //


Verso 1:
Em                      C
Vivo solo por Ti, oh Jesús
Em            C/G
Vivo solo por Ti.
Em                    C
Soy un canto de amor para Ti
Em                C/G  D
Soy un canto de amor.


Coro:
  G          C        Em         D
//Tu inmensidad me inspira a gritar
G        C         Em       D            Am
Y tu perdón me dio la libertad para celebrar//


Intro


Verso 2:
 Em                     C
Vivo solo por Ti, oh Jesús
 Em           C/G
Vivo solo por Ti.
 Em               C
El lamento quitaste de mí
 Em               C/G   D
Y me has hecho bailar


Coro


Bajo: // G - F# - G //


      Em/G                         C/G
  //Cantando, cantando, cantando por Ti//
      Em/G                         C/G
  //Danzando, danzando, danzando por Ti//
      Em/G                         C/G
////Saltando, saltando, saltando por Ti////


Solo: /// Em - C /// Bm - C

e-----9s15-15------------------------------
B--------------14h16-----------------------
G------------------------13h15-------------
D-------------------------------15--16------
A---------------------------------------------
E----------------------------------------------

 G         C         Em        D
Tu inmensidad me inspira a gritar
 A       D         F#m      E         Bm
Y tu perdón me dio la libertad para celebrar
  A          D        F#m        E
//Tu inmensidad me inspira a gritar
 A       D       F#m        E         Bm
Y tu perdón me dio la libertad para celebrar//
  D                      Bm
      Libre para celebrar
  D                      F#m
      Libre para adorar


Final: //// F#m - D/A ////
e-----9s15----------------15---14----------------
B--------------14h16------------------14---------
G----------------------------------------------15---
D----------------------------------------------------
A----------------------------------------------------
E-----------------------------------------------------
Esta canción es una de mis favoritas y está en D# y A#
el significado 9s15 quiere decir slide o arrastre del  9 traste al 15
14h16 quiere decir martillo, osea martillar con el dedo (suave).

Esta rola se la dedico a mi amigo y segunda guitarra Arturo Lucero que está
 mejorandose, a la banda Horeb de Guayaquil y Ministerios La Roca.
Aviso: Este fichero es trabajo propio de su transcriptor y representa su interpretación personal de la canción. El material contenido en esta página es para exclusivo uso privado, por lo que se prohibe su reproducción o retransmisión, así como su uso para fines comerciales.

Comentarios en Facebook: