Cantare De Tu Amor, Danilo Montero (tablatura)

Autor: Anónimo | 37560 visualizaciones

v
e|---------------------------------------10----12b14--14r12-10-12-10------|
B|-----------------------------10--10h12----10-----------------------12---|
G|------7-6--------7--9-7-9s11--------------------------------------------|
D|--5s7--------7s9--------------------------------------------------------|
A|------------------------------------------------------------------------|
E|------------------------------------------------------------------------|


                                                                        v
e|--------10----12s14---12------------------------------------------------|
B|--10h12----10------------14r12-10--------7-10s12--12-10-----------------|
G|---------------------------------------7----------------11-9-11---9---7-|
D|-----------------------------------7s9------------------------------9---|
A|------------------------------------------------------------------------|
E|------------------------------------------------------------------------|


                        v
e|----------------10h12s15------------------------------------------------|
B|--------8-10h12---------------------------------------------------------|
G|------7-----------------------------------------------------------------|
D|--7s9-------------------------------------------------------------------|
A|------------------------------------------------------------------------|
E|------------------------------------------------------------------------|




RELEASE (pre-bend)

Coloca el dedo sobre el LA del 10mo. traste y jala hacia arriba la cuerda hasta 
la posición de SI sin pulsarla.
Una vez en ésta posición, pulsas la nota y mientras aún está sonando dejas que 
la cuerda regrese a la posición
de LA manteniéndola apretada.

   B ||-------12-r-10---------

Fuente original: LaCuerda
Colaborador original: Sir Juan Pablo Benítez [unradical@hotmail.com]
Calificar esta versión:
Aviso: Este fichero es trabajo propio de su transcriptor y representa su interpretación personal de la canción. El material contenido en esta página es para exclusivo uso privado, por lo que se prohibe su reproducción o retransmisión, así como su uso para fines comerciales.
Más versiones de Cantare De Tu Amor, Danilo Montero
Cantare De Tu Amor
acordes
Cantare De Tu Amor (ver 2)
acordes
Cantare De Tu Amor (ver 3)
acordes
Cantare De Tu Amor (ver 4)
acordes
Cantare De Tu Amor (ver 5)
acordes
Cantaré De Tu Amor (ver 6)
acordes
Cantare De Tu Amor
tablatura
Cantaré De Tu Amor
bajo
Descubre más canciones de Danilo Montero