Aquel Que Nos Amó, Danilo Montero (tablatura)

Autor: Anónimo | 23665 visualizaciones

aqui eta el intermedio de la cancion:

      G                D       Am7     C
E--------------------------------------------/
A---------------------------------------------/
D----------------------------------------------/
G---------------------------16-17-16-14-12s----/
B--------------17-14-14/17--------------------/
e--5/17-15-14----------------------------------/


esto no estoy se guro que  va asi origalmente pero
se olle algo similar al de la cancion
     G                D
E-------------7----7----------------------------/
A----------7----------5----------------------/
D--------7---------------5-7-9----------------/
G--9-7-6------------------------7--------------/
B----------------------------------8---------/
e------------------------------------7--------/

    Am7                      C           G
E----------------------------------------------/
A-------------------------------------------------/
D-------------------------------------------------/
G-------------------------------------------------/
B-------------15-13-15---------------15-----------/
e--8-10-14-12----------12--14--14-12----15s------/

oiganla para que la saquen bien ok

saludos a josue ovando mr rober  a oscar y a esau de su brother
el batero dan..
Calificar esta versión:
Aviso: Este fichero es trabajo propio de su transcriptor y representa su interpretación personal de la canción. El material contenido en esta página es para exclusivo uso privado, por lo que se prohibe su reproducción o retransmisión, así como su uso para fines comerciales.
Más versiones de Aquel Que Nos Amó, Danilo Montero
Aquel Que Nos Amó
acordes
Aquel Que Nos Amó
tablatura
Descubre más canciones de Danilo Montero