Alabad A Jehova, Danilo Montero (bajo)

Autor: Anónimo | 33710 visualizaciones



Hola! esta alabanza me gusta mucho porque nos habla acerca de que tenemos que alabar
a Jehova por todo lo que nos ha dado, bueno aqui esta:

Intro:
B------------------------------------------------|----------------------------------------|
E--------------------3----3--3--4--5--6--7--8--9-|--------------3------3--3--4--5--6--4---|
A-15s3--3--3--4--5-------------------------------|-3--3--4--5-----------------------------|
D-----------------------5------------------------|------------------5---------------------|
G------------------------------------------------|----------------------------------------|
2 veces

Coro:
B-------------------------------------------------|--------------------------------------|
E-----------------3------3--3--4--5--6--7--8--9---|-------------3------3--3--4--5--7--5--|
A-3--3--3--4--5-----------------------------------|-3--3--4--5---------------------------|
D--------------------5----------------------------|-----------------5--------------------|
G-------------------------------------------------|--------------------------------------|
2 veces

Estrofa
B--------------------------------------------------------|
E-0--0----5--5----0--0----5--5-----0-0---0-0-0-0-----5---|
A--------------------------------------------------------|
D--------------------------------------------------------|
G--------------------------------------------------------|

Coro:
B---------------------------------------------------|-------------------------------------|
E----------------5------5--5--6--7--8--9--10--11----|--------------5-----5--5--6--7--9--7-|
A-5--5--5--6--7-------------------------------------|-5--5--6--7--------------------------|
D--------------------7------------------------------|-----------------7-------------------|
G---------------------------------------------------|-------------------------------------|

Estrofa:
B-------------------------------------------------------|
E-2--2------------2--2-------------2-2---2-2-2-2--------|
A---------2--2-----------2--2-----------------------2---|
D-------------------------------------------------------|
G-------------------------------------------------------|

Bueno despues va Pueblos Todos busquenla aqui mismo.
Si no la puedes leer o dudas mandame un mail

Fuente original: LaCuerda
Colaborador original: Daniel Galán Guevara [daniel_777_gvn@yahoo.com]





Calificar esta versión:
Aviso: Este fichero es trabajo propio de su transcriptor y representa su interpretación personal de la canción. El material contenido en esta página es para exclusivo uso privado, por lo que se prohibe su reproducción o retransmisión, así como su uso para fines comerciales.
Más versiones de Alabad A Jehova, Danilo Montero
Alabad A Jehova
acordes
Alabad A Jehova
bajo
Descubre más canciones de Danilo Montero