Al Estar Aqui, Danilo Montero (tablatura)

Autor: Anónimo | 31560 visualizaciones

Saludos para mi Teacher Jaime y Jorge, quienes me ayudaron y lograron
hacer de mí un buen guitarrista para la Obra de Dios. Calientes los
dedos antes de sacarlo. Provecho con este tema semi-concertista,
pura guitarra acústica solista.

Intro:

e|----------7--10h9-----9--7--9-------------10h7-----9--7--9-------------
B|------10-----------------------10-----10--------------------10-----10--
G|-4/9-------------------------------9----------------------------9------
D|-------------------7----------------------------7----------------------
A|--------------9----------------------------7---------------------------
E|---0-------------------------------------------------------------------

e|-4h5h4--5-------0-----0------7--9--12--(10)(10)--9--10--12--(10)(10)---
B|-----------5/7-----7-----10---------0--------------------0-------------
G|------------------------------------0--------------------0-------------
D|-0----------------------------------0--------------------0-------------
A|-----------------------------------------------------------------------
E|----------------------9------7-----------------------------------------

e|-9h10h9--5--7--------4--5-----5-----7---------------10---------10------
B|---------5--5--5--7-----5-----5-----5-----------10---------10----------
G|---------4--4--------------4-----4-----4-----9----------9----------9---
D|---------0--------------0-----------0-----0----------------------------
A|-----------------------------------------------------------------------
E|-----------------------------------------------------------------------

e|--9------9-----------7-----9--12--12--(10)(10)------9--(10)--10/9------
B|-10-----10-----------8-----8------10------------12---------------------
G|-----9------9-----7-----7----------9-----------------------------------
D|---------------0-------------------0-----------------------------------
A|-----------------------------------------------------------------------
E|-----------------------------------------------------------------------

e|-----------|
B|-10/6------|
G|----4------|
D|----7------|
A|----5------|
E|-----------|

Fuente original: LaCuerda
Colaborador original: José Isaac De La Cruz Linares [isaac_clapton@hotmail.com]
Calificar esta versión:
Aviso: Este fichero es trabajo propio de su transcriptor y representa su interpretación personal de la canción. El material contenido en esta página es para exclusivo uso privado, por lo que se prohibe su reproducción o retransmisión, así como su uso para fines comerciales.
Más versiones de Al Estar Aqui, Danilo Montero
Al Estar Aqui
acordes
Al Estar Aqui (ver 2)
acordes
Al Estar Aqui
tablatura
Descubre más canciones de Danilo Montero