Miradas Incompletas, Daniel F (tablatura)

Autor: Anónimo | 25350 visualizaciones

(este punteo es el intro que se hace con la armonica,lo saque
con la guitarra ojala que suene bien solo que lleva un monton
de hamers y no los puse , uds ya arreglenlo ,pero tambien sale
asi)


1-)-2--2h3h5h3-2-3-2-0-2--2h3h5-2-3-2-0
2-)------------------------------------
3-)------------------------------------
4-)------------------------------------
5-)------------------------------------
6-)------------------------------------

1-)-3-2-----------------3-3-2-0-
2-)----5-4--4-4-5-4-------------
3-)----------------5-4-5--------
4-)-----------------------------
5-)-----------------------------
6-)-----------------------------

1-) 2--2h3h5h3-2-3-2-0-7f
2-)----------------------
3-)----------------------
4-)----------------------
5-)----------------------
6-)----------------------

1-)-2h3h5h3-2-3-2-0--2--2h3h5h3-2-3-2-0
2-)------------------------------------
3-)------------------------------------
4-)------------------------------------
5-)------------------------------------
6-)------------------------------------

1-)-3-2-----------------3/2-2-2h3
2-)----5-4--4-4-5-4--------------
3-)----------------5-4-5---------
4-)------------------------------
5-)------------------------------
6-)------------------------------
D                            A
una lluvia de papel en tu ventana
                    G
se akurruka en tu mirada
         Em          A
y me devuelve la ilusi¨®n
D             F#m                        Bm
sin pensarlo siete veces lanzo un media mirada
           F#m7         G
ke me la devuelves kallada
      Em                 A
dando vuelo a m¨ª imaginaci¨®n
     D         F#
llevame en tu regaso de viento
Bm                    F#m
en akella inkompleta mirada
     G         F#m
llevame no me dejes partir
       G        A        D
ke estoy  tan solo  aki
1-)-2--2h3h5h3-2-3-2-0-2--2h3h5-2-3-2-0
2-)------------------------------------
3-)------------------------------------
4-)------------------------------------
5-)------------------------------------
6-)------------------------------------

1-)-3-2-----------------3-3-2-0-
2-)----5-4--4-4-5-4-------------
3-)----------------5-4-5--------
4-)-----------------------------
5-)-----------------------------
6-)-----------------------------

1-) 2--2h3h5h3-2-3-2-0-7f
2-)----------------------
3-)----------------------
4-)----------------------
5-)----------------------
6-)----------------------

1-)-2h3h5h3-2-3-2-0--2--2h3h5h3-2-3-2-0
2-)------------------------------------
3-)------------------------------------
4-)------------------------------------
5-)------------------------------------
6-)------------------------------------

1-)-3-2-----------------2h3h2-0-2-3
2-)----5-4--4-4-5-4----------------
3-)----------------5-4-5-----------
4-)--------------------------------
5-)--------------------------------
6-)--------------------------------

D  F#m  Bm F#m    G F#m Em
nanananararanana...
                 ¦·FIN¦·
-esta cancion muy buena de uno de mis idolos Daniel f
se la dedico a la persona que me hace temblar de hemocion
Yesenia Rosmeri M.M
Calificar esta versión:
Aviso: Este fichero es trabajo propio de su transcriptor y representa su interpretación personal de la canción. El material contenido en esta página es para exclusivo uso privado, por lo que se prohibe su reproducción o retransmisión, así como su uso para fines comerciales.
Más versiones de Miradas Incompletas, Daniel F
Miradas Incompletas
acordes
Miradas Incompletas
tablatura
Descubre más canciones de Daniel F