Memorias, Daniel F (tablatura)

Autor: Anónimo | 29766 visualizaciones

Aca esta esta canción bien chevere y espero que la disfruten:La otra tab esta mal,
no tiene la afinación correcta ni los acordes.Aca encontrras los acordes perfectos y,
por su puesto, como siempre en todas mis tab, los solos.


IMPOTANTE: AFINAR LAS CUERDAS Eb (1/2 tono mas bajo)

                                E --0--
             El acorde A/E =    B --5--
                                G --6--
                                D --7--
                                A --7--
                                E --0--


INTRO : Las notas las toca una guitarra junto con un contrabajo y 
        otra guitarra rasguea.


    A        E      A
  
e --------------------------------
b --------------------------------
g --------------------------------
d --------------------------------
e --0---------------0------(0)----
e -----------0---------------------


    A        E      A
  
e --------------------------------
b --------------------------------
g --------------------------------
d --------------------------------
e --0---------------0------(0)----
e -----------0---------------------

 
    D       E       A       

e --------------------------------
b --------------------------------
g --------------------------------
d --0-----------------------------
e ----------7-------0-------(0)---
e --------------------------------

  D       E       A       

e --------------------------------
b --------------------------------
g --------------------------------
d --0-----------------------------
e ----------7-------0-------(0)---
e --------------------------------




ESTROFA 1:

A       E           A      A
 Me asome un 4 de enero

A       E            A      A
 hubo espanto en derredores

D            E            A     A
 el barrio estaba hecho rumores

D           E                 A      A
 otro anticristo ha llegado señores

A       E           A      A
 de pekeño estuve en las jaulas

A    E                     A      A
 padeci muchos templos y dioses y

D      E                    A     A
 termine asesinando a esos dioses

D     E           A      A
 y pateando profesores 

A       E           A      A
 Tuve miedo y estuve oculto 

A       E           A      A
 me pasaba el dia soñando

D       E         A       A
 necesitaba un abrazo

D       E         A       A
 necesitaba un balazo



SOLO 1: Los acordes en el solo,si es que quieres tocarlos, son
        A E A A(x2) y D E A A(x2),igual que la estrofa


e ----------------------4-5-2s(4)-2-4-5---9-7------------------------------------------4-5-2s4--
b -2--5h7-5-2-2s(5)-5-7-----------------------10-9-7-(7)--7s(9)-7-6-(6)-6s8-6-5-5h7-5-7---------
g ----------------------------------------------------------------------------------------------
d ----------------------------------------------------------------------------------------------
e ----------------------------------------------------------------------------------------------
e ----------------------------------------------------------------------------------------------


e -2-4-5---10p(9)-7-------------
b ------------------10-9--------
g -----------------------11-9---
d ------------------------------
e ------------------------------
e ------------------------------



ESTROFA 2:

A     E              A      A
 conoci lo ke es el sexo

A      E             A      A
 la pase mejor desde entonces

D    E              A       A
 onanista a tiempo completo

D            E              A      A
 siempre de dia siempre de noche

A      E                   A      A
 la locura me dio un gran golpe

A      E                  A      A
 el sonido se hizo envolvente

D        E                   A     A
 el rey rojo salio de su guarida

D       E            A      A
 y las vacas despavoridas

A       E                 A      A
 Abandone la escuela temprano

A         E                  A      A
 el rocknroll me dio mas lecciones

D          E             A      A
 lo ke no supe en los salones

D         E         A      A
 lo aprendi de canciones


SOLO 2:

e -7h8f-(8)-8s(7)-(7)p(5)-5-4-2---------------------------10-9-7---------------------------------
b ------------------------------------9-10s(12)-10-9-7-10--------10-9-7--------------------------
g -------------------------------9-11-----------------------------------9-9s(11)-10-9-(9)-9s(11)-
d -----------------------------------------------------------------------------------------------
e -----------------------------------------------------------------------------------------------
e -----------------------------------------------------------------------------------------------

e --------------------------------------
b ------9-10-7s(9)-7-9-10---9-7-9-7-10--
g -9-11--------------------9-9-9-9-9----
d --------------------------------------
e --------------------------------------
e --------------------------------------



ESTROFA 3:

A           E               A      A
 Kon mi hermano hicimos un tango

A        E                  A      A
 nos burlamos de la hipocresia

D           E         A      A
 hartos de la rutina

D           E        A      A
 y de los mismos huevones

A       E                 A      A
 Una mañana del mes de octubre

A       E                     A      A
 aparecio una princesa en mi vida

D      E        A      A
 pura luz pura vida

D         E             A       A
 y yo la kiero desde entonces

A        E                 A      A
 nunca fuimos juntos a un baile 

A          E               A      A
 ni enfrentamos a esos dragones

D       E                A        A
 solo fuimos hasta la eskina 

D     E                  A        A
 y miramos los mismos faroles

A       E                   A      A
 la ciudad ya perdio la cordura 

A         E                   A      A
 y yo buscando una calle engomada 

D           E                  A      A
 la vida ofrece puertas de entrada

D          E                 A        A
 pero despues ya no tiene salidas

D        E                   A         A
 la esperanza es mierda a colores

D             E             A         A
 me llega al pincho esta rutina


 A/E (x8)........FIN



Cualquier comentario,petición, etc......mi mail es bracho_rhcp@hotmail.com
Calificar esta versión:
Aviso: Este fichero es trabajo propio de su transcriptor y representa su interpretación personal de la canción. El material contenido en esta página es para exclusivo uso privado, por lo que se prohibe su reproducción o retransmisión, así como su uso para fines comerciales.
Más versiones de Memorias, Daniel F
Memorias
acordes
Memorias (ver 2)
acordes
Memorias
tablatura
Descubre más canciones de Daniel F