Espíritu Santo, Daniel Calveti (bajo)

Autor: Anónimo | 27034 visualizaciones

hola.. meyamo fernando apodaca soi de obregon sonora esta es una mui buena
cancion de DANIEL CALVETI.. y se la dedico a una mujer mui hermosa ke se yama
SAMANTHA.. y le mando saludos al many, al carlos, al vladi y ala congregacion
de amistad cristiana de obregon.. no kreo ke este al 100% correcta pero les va
a aser un paro..


ESTROFA:
B----------------------------------------------------
E-3-3-----3---------1-1-----1------------------------
A----------5-5---------------3-3---------------------X4
D----------------------------------------------------
G------------------------------------5s4-5-4-0-------


CORO:
B---------------------------------------------------------
E-3-3---33-3----------------------------------------------
A-----------------5-5--55-5-----7-7--77-7/3-3----33-3----- X2
D---------------------------------------------------------
G---------------------------------------------------------

ESTROFA:
B------------------------------------------------------
E-3-3-----3-----------1-1-----1------------------------
A----------5-5-----5/2---------3-3--------------------- X4
D------------------------------------------------------
G--------------------------------------5s4-5-4-0-------

CORO:
B---------------------------------------------------------
E-3-3---33-3-----3----------------------------------------
A-----------------5-5--55-5-----7-7--77-7/3-3----33-3----- X2
D---------------------------------------------------------
G---------------------------------------------------------

PUENTE:
B---------------------------------------------------------
E-3-3---33-3-----3----------------------------------------
A-----------------5-5--55-5---5/7-7--77-7/3-3----33-3----- X2
D---------------------------------------------------------
G---------------------------------------------------------

CORO:
B---------------------------------------------------------
E-3-3---33-3-----3----------------------------------------
A-----------------5-5--55-5-----7-7--77-7/3-3----33-3----- X4
D---------------------------------------------------------
G---------------------------------------------------------

alguna duda, comentario o correccion mendenme un correo
ke dios les vendiga byes...
Calificar esta versión:
Aviso: Este fichero es trabajo propio de su transcriptor y representa su interpretación personal de la canción. El material contenido en esta página es para exclusivo uso privado, por lo que se prohibe su reproducción o retransmisión, así como su uso para fines comerciales.
Más versiones de Espíritu Santo, Daniel Calveti
Espíritu Santo
acordes
Espíritu Santo
tablatura
Espíritu Santo
bajo
Descubre más canciones de Daniel Calveti