Cero, Dani Martín (tablatura)

Autor: Anónimo | 20267 visualizaciones

BUENO PUES DE MI PARTE FUE LO MEJOR QUE PUDE HACER ESPERO QUE LE SIRVA

b = full bend
br = bend and release
v = vibrato
/ = slide up
p = pull-off
h = hammer-on

DO-REm-SOL

DO                         REm
 Todo lo que vimos se nos fue
SOL                       DO
 Soñé que siempre iría al lado
                        REm
Eso que inventamos ya no es
SOL                     DO
 Ahora solo existe el pasado

LAm-DO               REm
     Y me toca entender
FA#-SOL                    DO
     Qué hacer con tus abrazos
LAm-DO                REm
     Ahora toca aprender
FA#-SOL               DO
     Como dejar de querer
  REm          SOL
Saber borrarlo bien
                   FA
Que igual que vino fue
           SOL
Que hoy es CERO

    DO
Quiero
                      SOL
Que todo vuelva a empezar
                    REm
Que todo vuelva a girar
                  FA
Que todo venga de cero
   SOL
De cero...

      DO                     SOL
Y quiero que todo vuelva a sonar
                     REm
Que todo vuelva a brillar
                  FA
Que todo venga de cero
   SOL
De cero...

Solo 1

|--------8----------­--------------------
|------8---8------10----------8-----8---
|-9-10-------9-10---­--------7---7-9-----
|----------------------­9-10-------------
|---------------------------------------
|-------------------­--------------------


DO                      REm
Eso, desaparece y no lo ves
      SOL                      DO
Ese regalo que la vida pone al lado
                         REm
Dura lo que dura y ya se fue
   SOL                  DO
Ni tu ni yo lo hemos cuidado

LAm-DO                 REm
     Y ahora toca entender
FA-SOL                   DO
     Qué hacer con tanto daño
LAm-DO                 REm
     Y ahora toca aprender
FA-SOL                DO
     Como dejar de querer
    REm          SOL
O saber borrarlo bien
                   FA
Que igual que vino fue
         SOL
Y es tan feo

    DO
Quiero
                      SOL
Que todo vuelva a empezar
                    REm
Que todo vuelva a girar
                  FA
Que todo venga de cero
   SOL
De cero...

      DO                     SOL
Y quiero que todo vuelva a sonar
                     REm
Que todo vuelva a brillar
                  FA
Que todo venga de cero
   SOL
De cero...

Solo 2

Para eléctrica
X4
|-----------------------------------
|-------8----8-----8----8--­---------
|---9h10--10b--9h10--10b--10br10-9­--
|-----------------------------------
|-----------------------------------
|-----------------------------------

|-----------------------------
|-----------------------------
|------------12-12-----12-----
|-12-9-10-12-------10---------
|-------------------------10--
|-----------------------------


  DO                            REm
Y siento que todo lo malo es pensar
                      SOL
Que todo lo que viene va
                    DO
Que todo se va consumiendo
                         SOL
Y el silencio manda hoy más

    DO
Quiero
                      SOL
Que todo vuelva a empezar
                    REm
Que todo vuelva a girar
                  FA
Que todo venga de cero
   SOL
De cero...

      DO                         SOL
Y quiero... (que todo vuelva a sonar)
      REm                      FA       SOL
Y quiero... (que todo venga de cero, de cero)
      DO                           SOL
Y quiero... (que todo vuelva a empezar)
      REm                      FA      SOL   DO
Y quiero... (que todo venga de cero de cero)

SOLO 2
Para acústica o española
X4
|---------------------------------------­------
|------8----------------8---­------------------
|-9h10---10s12-12--9h10----10s12-12--­12-10-9--
|---------------------------------------­------
|---------------------------------------­------
|---------------------------------------­------


|----------------------------
|----------------------------
|------------12-12----12-----
|-12-9-10-12-------10--------
|------------------------10-­-
|----------------------------

https://www.facebook.com/pauldaniel.jamesquintana1
Calificar esta versión:
Aviso: Este fichero es trabajo propio de su transcriptor y representa su interpretación personal de la canción. El material contenido en esta página es para exclusivo uso privado, por lo que se prohibe su reproducción o retransmisión, así como su uso para fines comerciales.
Más versiones de Cero, Dani Martín
Cero
acordes
Cero
tablatura
Descubre más canciones de Dani Martín