Ella, Damas Gratis (tablatura)

Autor: Santi_G | 24921 visualizaciones



 pongo en tablatura d guitarra pero lo ase el teclado:

e|---1-1-0---0-1---1-0---0-1---1-1-0---0-1
B|---------3-----------3-------------3----
G|----------------------------------------
D|----------------------------------------
A|----------------------------------------
E|----------------------------------------

e|-----------------------------------------------------------
B|--------3-1------------------1-----------------------------
G|--0-0-3-----3-2-0----------2---3-2-0----------0-3-2-0------
D|----------------------3-3------------3----2-2---------3-2-0
A|-----------------------------------------------------------
E|-----------------------------------------------------------

---------5-5-5-
---------6-6-6-
--2-0----7-7-7-
------3--------
---------------
---------------
---------------





Comentarios del colaborador: esta cancion se la dedico a Ian q le encanta la cumbia como ami ;)

Calificar esta versión:
Aviso: Este fichero es trabajo propio de su transcriptor y representa su interpretación personal de la canción. El material contenido en esta página es para exclusivo uso privado, por lo que se prohibe su reproducción o retransmisión, así como su uso para fines comerciales.
Más versiones de Ella, Damas Gratis
Ella
acordes
Ella
tablatura
Descubre más canciones de Damas Gratis