Ahora No Tomo Mas, Menos Tampoco, Damas Gratis (acordes)

Autor: Anónimo | 18169 visualizaciones



AHORA NO TOMO MAS, MENOS TAMPOCO
DAMA$ GRATI$

INTRO

1e ------------------------------------------------------------/--
2B ------------------------------------------------------------/--
3G ------------------------------------------------------------/--
4D ------------------------------------------------------------/--
5A --0-0-0-0-0-0-0-3-0-0-0-0-0-0-0---0-0-0-0-0-0-0-3-0---0--0--/--
6E --------------------------------3-------------------3--3----/--


1e -0-1-0--0-1-0--0-1-0--1-3-5---/--- 
2B ------------------------------/--- 
3G ------------------------------/---

1e -0-1-0--0-1-0--0-1-0----------/---
2B ---------------------3--1-----/---
3G ----------------------------2-/---


el vino pasion de multitudes me rescata
de andar tomando esa sustancia que me mata
gracias al vino de la sustancia yo me olvido, yo me olvido

2B ---------------1--------------------------------1-------------
3G -2-2-2-2-2-2-2--2-2-2-2-2-2-2--0--2-2-2-2-2-2-2---2--0-2-0-2--

ahora no tomo mas X2 menos tampoco X2 X2





Calificar esta versión:
Aviso: Este fichero es trabajo propio de su transcriptor y representa su interpretación personal de la canción. El material contenido en esta página es para exclusivo uso privado, por lo que se prohibe su reproducción o retransmisión, así como su uso para fines comerciales.
Más versiones de Ahora No Tomo Mas, Menos Tampoco, Damas Gratis
Ahora No Tomo Mas, Menos Tampoco
acordes
Ahora No Tomo Mas, Menos Tampoco (ver 2)
acordes
Descubre más canciones de Damas Gratis