Hoy, Dalevuelta (bajo)

Autor: Anónimo | 40890 visualizaciones



El intro se toca primero el bajo solo y en la segunda entra la guitarra:

     C5                             A5 
|--------------------------------|--------------------------------|
|--------------------------------|--------------------------------|
|--------------------------------|--------------------------------|
|----8---8---10--8---7-----------|--5---5---7---5---4-------------|

   F5                              G5
|--------------------------------|--------------------------------|
|--------------------------------|--------------------------------|
|--------------------------------|--------------------------------|
|--1---1---3---1---0-------------|--3---3---5---3---2-------------| 2 veces

VERSO:

Hoy es...                   ...cultivar mis penas
|--------------------------------|--------------------------------|
|--------------------------------|--------------------------------|
|--------------------------------|--------------------------------|
|--8-8-8-8-8-8-8-8-8-8-8-8-8---5-|5-5-5-5-5-5-5-5-5---------------|

  para malgastar...       ...alcohol
|--------------------------------|--------------------------------|
|--------------------------------|--------------------------------|
|--------------------------------|--------------------------------|
|------1-1-1-1-1-1-1-1-1-1---3-3-|3-3-3-3-3-3-3-3-----------------|

CORO:

 Un  día  komo   hoy         buskaré lo   ke soy
|---------------------------------------|--------------------------------|
|---------------------------------------|--------------------------------|
|---------------------------------------|--------------------------------|
|1-1-3-3-3-3-3-3-8-8-8-10-12-1-1-1-1-3-3|3-3-8-8-8-8---------------------|

 un  día   komo  hoy          viviré la   ilusión
|---------------------------------------|--------------------------------|
|---------------------------------------|--------------------------------|
|---------------------------------------|--------------------------------|
|1-1-3-3-3-3-3-3-8-8-8-10-12-1-1-1-1-3-3|3-3-8-8-8-8---------------------|


Luego se toca lo del verso y el coro, y al final se repite lo mismo.
Esa es toda la cancion.
Dedicada para el batero Goro(el bomba), pa CaraDePlato {:

Fuente original: LaCuerda
Colaborador original: AlexSc [kurkosc@latinmail.com]





Calificar esta versión:
Aviso: Este fichero es trabajo propio de su transcriptor y representa su interpretación personal de la canción. El material contenido en esta página es para exclusivo uso privado, por lo que se prohibe su reproducción o retransmisión, así como su uso para fines comerciales.
Más versiones de Hoy, Dalevuelta
Hoy
acordes
Hoy
bajo
Descubre más canciones de Dalevuelta