Frustracion, Dalevuelta (bajo)

Autor: Anónimo | 28162 visualizaciones



Nada....


Verso

|------------------------------|
|------------------------------|
|----5-5-7-7-7-7--------7-5----|  x2
|-8-8------------5-5-7-7---8-7-|

|---------------------------|
|---------------------------|
|--------3-5-3--------3-5-3-|
|-1-1-1-1------1-1-1-1------|

|---------------------------|
|---------------------------|
|--------5-7-5--------5-7-5-|
|-3-3-3-3------3-3-3-3------|


Coro

|---------------------------------|
|---------------------------------|
|-3-3-3-3-3-3-3-3-----------------|  x4
|-----------------1-1-1-1-1-1-1-1-|

|-----------------------|
|-----------------------|
|-----------------------|
|-1-1-1-1-1-1-1-1-3(16)-|

Listo

No fue tan dificil
jeje

Fuente original: LaCuerda
Colaborador original: Marco Feijoo [he_korn@hotmail.com]





Calificar esta versión:
Aviso: Este fichero es trabajo propio de su transcriptor y representa su interpretación personal de la canción. El material contenido en esta página es para exclusivo uso privado, por lo que se prohibe su reproducción o retransmisión, así como su uso para fines comerciales.
Más versiones de Frustracion, Dalevuelta
Frustracion
acordes
Frustracion (ver 2)
acordes
Frustracion
bajo
Descubre más canciones de Dalevuelta