Que Tengo Que Hacer, Daddy Yankee (tablatura)

Autor: gazza | 23903 visualizaciones

Melodia del tema:
--------------------------|1----------------------|-1-----------
--------------------------|-4-2-1-----------------|--4-2-1----2-
-3-3-6-5-5-5-5-5-3-6-5-5-5|------3-3-3-3s5-5-5-6-6|6-------3-3--
--------------------------|-----------------------|-------------
--------------------------|-----------------------|-------------
--------------------------|-----------------------|-------------


|-1---------------||1-------------------------------|1---------
|--4-2-1----2-1---|-4-2-1---------------------------|-4-2-1----
|6-------3-3---1-3|------3-3-3-3s5-5-5-6-6-6-6-3-5-6|------3---
|-----------------|---------------------------------|---------
|-----------------|---------------------------------|---------
|-----------------|---------------------------------|---------
Calificar esta versión:
Aviso: Este fichero es trabajo propio de su transcriptor y representa su interpretación personal de la canción. El material contenido en esta página es para exclusivo uso privado, por lo que se prohibe su reproducción o retransmisión, así como su uso para fines comerciales.
Más versiones de Que Tengo Que Hacer, Daddy Yankee
Que Tengo Que Hacer
acordes
Que Tengo Que Hacer
tablatura
Que Tengo Que Hacer
teclado
Descubre más canciones de Daddy Yankee