Fiel Amiga, Daddy Yankee (tablatura)

Autor: Anónimo | 36986 visualizaciones

Daniel Reinoso
Hola Espero q te guste  esta rola la saque en un momento de ocio
Alguna sugerencia: vichymir@yahoo.com



e--------------11—9—7---9—7—9---11---11---------
b-----------------------------------------------
g-------8---------------------------------------
d---6-------------------------------------------
A-----------------------------------------------
E-----------------------------------------------


e----------11—9—7—9—11—9—7—----6-----------------
b------------------------------------------------
g-------8----------------------------------------
d---6--------------------------------------------
A------------------------------------------------
E------------------------------------------------
Calificar esta versión:
Aviso: Este fichero es trabajo propio de su transcriptor y representa su interpretación personal de la canción. El material contenido en esta página es para exclusivo uso privado, por lo que se prohibe su reproducción o retransmisión, así como su uso para fines comerciales.
Más versiones de Fiel Amiga, Daddy Yankee
Fiel Amiga
acordes
Fiel Amiga
tablatura
Descubre más canciones de Daddy Yankee