Lloviendo Estrellas, Cristian Castro (tablatura)

Autor: Anónimo | 33937 visualizaciones



O    O O     O O O O  O
    O   O  O   O   O        O
   O     O O O     O O O    O
   O     O O  O    O        O
    O   O  O   O   O        O
      O    O    O  O        O


No habia ninguna transcripción con la introducción de esta 
canción asi que decidi sacarla para todos ustedes.

Introducción:


e -0h2-2-2-2-2-0-2-2-3-2-2-2--|-0h2-2-2-2-2------
B -3---3-3-3-3-3-3-3-3-3-3-3--|-3---3-3-3-3------
G -2---2-2-2-2-2-2-1-2-2-2-2--|-2---2-2-2-2------
D -0--------------------------|-0----------------
A -0--------------------------|-0----------------
E -0--------------------------|-0----------------

e -2/5-5-5-3-2-0--


e -0h2-2-2-2-2-2-0-2-2-3-2-2-2-|
B -3---3-3-3-3-3-3-3-3-3-3-3-3-|
G -2---2-2-2-2-2-2-1-2-2-2-2-2-|
D -0---------------------------| 
A -0---------------------------|
E -0---------------------------|

e -0h2-2-2-2-2-2-0-2-2-3-2-2-2-|
B -3---3-3-3-3-3-3-3-3-3-3-3-3-|
G -2---2-2-2-2-2-2-1-2-2-2-2-2-|
D -0---------------------------| 
A -0---------------------------|
E -0---------------------------|

e -0h2-2-2-2-2-2-0-2-2-3-2-2-2-|
B -3---3-3-3-3-3-3-3-3-3-3-3-3-|
G -2---2-2-2-2-2-2-1-2-2-2-2-2-|
D -0---------------------------| 
A -0---------------------------|
E -0---------------------------|

Acordes:

# 1

D                         A                  Bm
   Perdona si hago de cuenta que no te he perdido
               F#m                    G
Me duele aceptar que ya no estés conmigo
                D                  A
Y no puedo dejar de pensar sólo en ti.
D                          A                 Bm
   No se si algún día sabrás que te llevo conmigo
           F#m                 G
La vida no tiene razón ni sentido
               D                 A
Y me puedo morir si no estás junto a mi.

e --5-3-2--


# 2
     Bm             G
Tengo tanta sed de ti
        A            D
Que me cuesta respirar,
      Bm           G
O será que mi delirio
          D     A
Te hago mas y mas.

# 3
          G           A
Estan lloviendo estrellas
             Bm      F#m
En nuestra habitacion,
               G
Mojan de llanto
   A      D
Mi corazón.

e -0h2-2-2-2-2-2-0-2-2-3-2-
B -3---3-3-3-3-3-3-3-3-3-3-
G -2---2-2-2-2-2-2-1-2-2-2-
D -0----------------------- 
A -0-----------------------
E -0-----------------------

# 3
           G           A
Están lloviendo estrellas,
        Bm    F#m
Alrededor de mi
        G     A            D
Y me preguntan que fue de ti.

e -0h2-2-2-2-2-2-0-2-2-3-2-
B -3---3-3-3-3-3-3-3-3-3-3-
G -2---2-2-2-2-2-2-1-2-2-2-
D -0----------------------- 
A -0-----------------------
E -0-----------------------

#1 

Quisiera llevarte muy dentro
Y llegado el momento
Entrar en el fondo de tus sentimientos
Y ver si te pasa lo mismo que a mi.

e -5-3-2--

# 2
Si acaso al estar junto a el le dijeras mi nombre
Que estando en sus brazos mis besos escondes
Recuerdas las noches de amor que te dí.

# 3 (x2)


e -0h2-2-2-2-2-2-0-2-2-3-2-
B -3---3-3-3-3-3-3-3-3-3-3-
G -2---2-2-2-2-2-2-1-2-2-2-
D -0----------------------- 
A -0-----------------------
E -0-----------------------

# 3

e -0h2-2-2-2-2-2-0-2-2-3-2-
B -3---3-3-3-3-3-3-3-3-3-3-
G -2---2-2-2-2-2-2-1-2-2-2-
D -0----------------------- 
A -0-----------------------
E -0-----------------------

# 3

Fuente original: LaCuerda
Colaborador original: Orfi [oscarflores_i@hotmail.com]





Calificar esta versión:
Aviso: Este fichero es trabajo propio de su transcriptor y representa su interpretación personal de la canción. El material contenido en esta página es para exclusivo uso privado, por lo que se prohibe su reproducción o retransmisión, así como su uso para fines comerciales.
Más versiones de Lloviendo Estrellas, Cristian Castro
Lloviendo Estrellas
acordes
Lloviendo Estrellas (ver 2)
acordes
Lloviendo Estrellas
tablatura
Descubre más canciones de Cristian Castro