Lloran Las Rosas, Cristian Castro (tablatura)

Autor: Anónimo | 41348 visualizaciones



Esta es la introducción de la canción

Intro:

e|-------------------3--2-----3---2---3-------+----
B|---------------3------------------------3---+----
G|--0---2---2/4-------------------------------+----
D|--------------------------------------------+----
A|--------------------------------------------+----
E|--------------------------------------------+----

e|--------3--2---0----------------------------+----
B|--0--3------------3-------------------------+----
G|---------------------5--4-------------------+----
D|--------------------------------------------+----
A|--------------------------------------------+----
E|--------------------------------------------+----

e|--------------0-------------------3---------+----
B|-----0--3--3----1---1/3-4--3--1-------------+----
G|--------------------------------------------+----
D|--2-----------------------------------------+----
A|--------------------------------------------+----
E|--------------------------------------------+----


Colaboración Jhon Harold Pasaje

Fuente original: LaCuerda
Colaborador original: Giovani Palta [giovani@silverston.zzn.com]





Calificar esta versión:
Aviso: Este fichero es trabajo propio de su transcriptor y representa su interpretación personal de la canción. El material contenido en esta página es para exclusivo uso privado, por lo que se prohibe su reproducción o retransmisión, así como su uso para fines comerciales.
Más versiones de Lloran Las Rosas, Cristian Castro
Lloran Las Rosas
acordes
Lloran Las Rosas
tablatura
Descubre más canciones de Cristian Castro