Azul, Cristian Castro (tablatura) (ver 2)

Autor: Anónimo | 31173 visualizaciones



Cristian Castro - Azul
Tabbed By Julian Loor

Tablature Legend
----------------
 h   - hammer-on
 p   - pull-off
 b   - bend
 r   - bend release 
 /  - slide 
 ~   - vibrato
 =   - hold bend
 ph  - pinch harmonic
 pm  - pal muting


INTRO

Para entrar exacto hay qu estar atento al intro del teclado y el remate de bateria...

E|----------------------------------------------------------------------------|
B|----------------------------------------------------------------------------|
G|----------------------------------------------------------------------------|
D|--------------7-8-10-----------10-8-7-------------------------8/10-10-8-7---|
A|-8-8pm-8pm--8--------7-7pm-7pm------------------------7-8-----------------8-|
E|--------------------------------------10-10pm-10pm-10-----6-6---------------|

E|-------------------------------------------------|
B|------------------------------------------8------|
G|-------------------9/109-------------------9/10-|
D|---7-8-10-10-8-7-8-----------7-8-8-7----7--------|
A|-8------------------------10---------10----------|
E|-------------------------------------------------|

E|-------------------------------------------------------------|
B|-------------------------------------------11-10-------------|
G|----------------------------------------10-------10----------|
D|-------5-7~-5-5~-----3-5~-3-3~/10-10-10-------------1087---|
A|-5-7-8-----------3-5---------------------------------------8-|
E|-------------------------------------------------------------|

VERSO 1:

Fa                 La#           
Fue una mañana que yo te encontré
Do                Fa      Do     rem
cuando la brisa besaba tu dulce piel
                        Sol
Tus ojos tristes que al ver adoré
   La#               Do
la noche que yo te amé.
Fa                           La#
Azul, cuando en silencio por fin te besé
Do                        Fa        Do   rem
Azul, sentí muy dentro nacer este amor azul
                       Sol
hoy miro al cielo y en ti puedo ver
       La#                 Do
la estrella que siempre soñé


CORO:

Fa                           La#               Do
Azul, y es que este amor es azul como el mar azul
             Fa      Do        rem
como de tu mirada nació mi ilusión
               Sol                   La#
Azul como una lágrima cuando hay perdón
                Do                      Fa
tan puro y tan azul que me aguó el corazón

Fa                      La#              Do
Y es que este amor es azul como el mar azul
                  Fa       Do           rem
como el azul del cielo nació entre los dos
               Sol                 La#
Azul como el lucero de nuestra pasión
               Do                      Fa       La#
un manantial azul que me llena de amooouor

VERSO 2:

Fa                   La#
Como el milagro que tanto esperé
Do                 Fa        Do    rem
eres la niña que siempre busqué, Azul
                       Sol      
es tu inocencia que quiero entender
     La#              Do
tu principe azul yo seré

Fa                       La#
Azul, es mi locura si estoy junto a ti
Do                   Fa        Do  rem
Azul, rayo de luna serás para mi azul
                    Sol         
y con la lluvia pintada de azul
     La#                Do
por siempre serás sólo tú.


CORO:

Fa                           La#               Do
Azul, y es que este amor es azul como el mar azul
              Fa      Do        rem
como de tu mirada nació mi ilusión
               Sol                   La#
Azul como una lágrima cuando hay perdón
                Do                      Fa
tan puro y tan azul que me aguó el corazón

Fa                      La#              Do
Y es que este amor es azul como el mar azul
                  Fa       Do           rem
como el azul del cielo nació entre los dos
               Sol                 La#
Azul como el lucero de nuestra pasión
               Do                   
un manantial azuuuul.....que me llena de amor


SOLO


E|--------------13-15-15b17-15b17r15-15-13-15~-|
B|-16b18~--------------------------------------|
G|--------16h17--------------------------------|
D|---------------------------------------------|
A|---------------------------------------------|
E|---------------------------------------------|

E|------------------------------------------------|
B|------------------------------------------------|
G|-------9h10-10~--9------------------------------|
D|-10h12-------------12-10h12p10------------------|
A|-------------------------------10h12p10--8h10-8-|
E|------------------------------------------------|

E|-------13-------15-------17-20b22r20-----------------|
B|-13h15----13h15----13h15-------------20b22r20-18-20~-|
G|-----------------------------------------------------|
D|-----------------------------------------------------|
A|-----------------------------------------------------|
E|-----------------------------------------------------|

E|--------------------------------------------14----14----|
B|--------------------------------------------17b19-17b19-|
G|-12h14h15-14-12-----13----13----14----14----------------|
D|----------------15--15b17-15b17-16b18-16b18-------------|
A|--------------------------------------------------------|
E|--------------------------------------------------------|



Al final del Solo la cancion sube medio tono la cancion sube 1/2 tono:

Fa#                        B                Do#
Azul es que este amor es azul como el mar azul
              Fa#    Do#        rem#
como de tu mirada nació mi ilusión
               Sol#                  B
Azul como una lágrima cuando hay perdón
                Do#                     Fa#
Tan puro y tan azul que me aguo el corazón

                        B                Do#
Y es que este amor es azul como el mar azul
                  Fa#     Do#          re-#
como el azul del cielo nació entre los dos
               Sol#                B
Azul como el lucero de nuestra pasión
              Do#                   Fa#
un manantial azul que me llena de amoooooor

etc......

Fin

Cualquier duda escribanme a mi e-mail
julianloor_13@hotmail.com
Julian Loor - Steve Vai - Eddia Van Halen

Fuente original: LaCuerda
Colaborador original: Julian Loor [julianloor_13@hotmail.com]





Calificar esta versión:
Aviso: Este fichero es trabajo propio de su transcriptor y representa su interpretación personal de la canción. El material contenido en esta página es para exclusivo uso privado, por lo que se prohibe su reproducción o retransmisión, así como su uso para fines comerciales.
Más versiones de Azul, Cristian Castro
Azul
acordes
Azul (ver 2)
acordes
Azul (ver 3)
acordes
Azul
tablatura
Azul (ver 2)
tablatura
Descubre más canciones de Cristian Castro