Down On The Corner, Creedence Clearwater Revival (tablatura) (ver 2)

Autor: elacorde | 22853 visualizaciones



---------------------------------------------------------------
---------------------------------------------------------------
---------------------------------------------------------------
--------------------------------------------------------------
-3-0---3-3-0-----2-3-3---3-0---3-3-0-----2-3-3-----------------
-----3-------3-3-------------3-------3-3-----------------------


-------------------------------------------------------------
-------------------------------------------------------------
-------------------------------------------------------------
-3-0---3-3-0-----2-5-5---------------------------------------
-----3-------3-3---------------------------------------------
-------------------------------------------------------------





Calificar esta versión:
Aviso: Este fichero es trabajo propio de su transcriptor y representa su interpretación personal de la canción. El material contenido en esta página es para exclusivo uso privado, por lo que se prohibe su reproducción o retransmisión, así como su uso para fines comerciales.
Más versiones de Down On The Corner, Creedence Clearwater Revival
Down On The Corner
acordes
Down On The Corner
tablatura
Down On The Corner (ver 2)
tablatura
Down On The Corner (ver 3)
tablatura
Descubre más canciones de Creedence Clearwater Revival