With Arms Wide Open, Creed (bajo)

Autor: fherxo | 24541 visualizaciones



Intro No bass until "I closed my eyes..."
G|------------------------------------0--0--2--0-|
D|-----------------------------------------------|
A|-3--3--3--3--2--2--2--2-0--0--0--0-------------|
D|-----------------------------------------------|

1st Chorus
G|----------------------------------------|
D|----------------------------------------|
A|-------------3--3--3h5-0---------3-3-5~-|
D|-3--3--3h5h6-------------2--2--2--------|

Then...for the 1st verse
G|----------------------------0-----------------------9-7---------|
D|-------------------------------------5h7-7--14--12------7-5-2-0-|
A|-3--3--3-5p3-2--2--2h3h5-0-----5-5h7----------------------------|
D|----------------------------------------------------------------|

G|----------------------------0------------------------------|
D|------------------------------------5h7-7--12h14--5h7--0h2-|
A|-3--3--3-5p3-2--2--2h3h5-0----5-5h7------------------------|
D|-----------------------------------------------------------|

G|---------------------------0----------------------|
D|-----------------------------------5h7-7--5h7~-5~-|
A|-3--3--3-5p3-2--2--2h3h5-0---5-5h7----------------|
D|--------------------------------------------------|

2nd Chorus the first little slide at the begining is on the guitar but i like to do it
G|---------------------------------------------------------------------
D|---------------------------------------------------------------------
A|-------------------------------3--3-3-3--3-3--3-3-3h5-0--------------
D|-/10-3--3-3-3--3-3--3-3-3h5h6--------------------------2--2-2-2--2~-

then
G|-----------------------------------------------------------------
D|-----------------------------------------------------------------
A|-5-5-5h7-7-7-7--------------------------3--3-3-3--3-3--3-3-3h5-0-
D|---------------3--3-3-3--3-3--3-3-3h5h6--------------------------

G|-------------------------|
D|-------------------------|
A|----------------5-5-5h7~-|
D|-2--2-2-2/14-0~~---------|

Then right before solo
G|-------------7h9-9-9-9-9-|
D|-------------------------|
A|-0~~~0~~~0~~~------------|
D|-------------------------|

Solo
G|---------------------------------------------------------------------
D|---------------------------------------------------------------------
A|-3--3-3-3--3-3-3h5-5-2--2-2-2-2-2-2h3h5-1--1-1-1--1-1--1-1-0-0-0-0-0-
D|---------------------------------------------------------------------





Calificar esta versión:
Aviso: Este fichero es trabajo propio de su transcriptor y representa su interpretación personal de la canción. El material contenido en esta página es para exclusivo uso privado, por lo que se prohibe su reproducción o retransmisión, así como su uso para fines comerciales.
Más versiones de With Arms Wide Open, Creed
With Arms Wide Open
acordes
With Arms Wide Open
bajo
With Arms Wide Open
bateria
Descubre más canciones de Creed