One Last Breath, Creed (acordes) (ver 2)

Autor: Elfenlied | 19654 visualizaciones

abmdefsosg


 Intro:  D A Bm G [x2] [Correções -intro- por Vitor Otaka]

E|-2----5----0h2------------------------------------------------|
B|---------------3------2-3-3h5---5p3p2-3--------3---2h3--------|
G|-----------------2------------------------4------------4------|
D|-0--0---0------------------------------------------------4----|
A|--------------------0---------0---------0----2---2------------|
E|--------------------------------------------------------------|

E|------------3-2--2----3---2-0h2-------------------------------|
B|--------3-----------------------2--------------2--2h3p2-------|
G|-----0----2-------------------------------2-------------2-----|
D|---0---0---------0-0----0--------------2------------------2---|
A|----------------------------------4-0-------------------------|
E|-3------------------------------------------------------------|

E|----------2------------------3----------|
B|--------3---2------------------3--------|
G|------4------4-----------0-------0------|
D|----4----------4-------0-----------0----|
A|--2------------------2------------------|
E|------------------3---------------------|


D               A                 Bm               
Please come now, I think I'm falling 
                 G                   D
I'm Holding on to all I think is safe
             A                      Bm
I seem to've found the road to nowhere
         G               D
and I'm trying to escape
            A                    Bm 
I yelled back when I heard thunder
         G                      D
but I'm down to one last breath
      A             Bm          G
and with it let me say, let me say


D          F#
Hold me now
        Bm              G                  D
I'm six feet from the edge and I'm thinkin'
           F#         Bm       G
maybe six feet ain't so far down

D A Bm G [x2]


D           A                   Bm
I'm looking down, now that it's over
               G                 D          
reflecting on all of my mistakes
               A                 Bm
I thought i found the road to somewhere,
 G                      D
somewhere in His grace
          A              Bm
I cried out "Heaven save me!"
         G                      D     
but I'm down to one last breath
       A          Bm           G
and with it let me say, let me say

D          F#
Hold me now
        Bm              G                  D
I'm six feet from the edge and I'm thinkin'
           F#         Bm       G
maybe six feet ain't so far down

D          F#
Hold me now
        Bm              G                  D
I'm six feet from the edge and I'm thinkin'
           F#         Bm       G
maybe six feet ain't so far down

    Bm       G
    Bm       G
I'm so far down

Bridge:
E       G        D
Sad eyes follow me
                A                 Bm               G
cause' I still believe there's something left for me
E             G          D
so please come stay with me
              A                   Bm              G
cause' I still beleive there's something left for you and me

for you and me, for you and me

Solo D F# Bm G

D           F#
Hold me now
        Bm              G
I'm six feet from the edge and I'm thinkin'[thinkin']

D          F#
Hold me now
        Bm              G                  D
I'm six feet from the edge and I'm thinkin'
           F#         Bm       G
maybe six feet ain't so far down

D          F#
Hold me now
        Bm              G                  D
I'm six feet from the edge and I'm thinkin'
           F#         Bm       G
maybe six feet ain't so far down

Final
E|-2----5----0h2--------------------------------------------------------------3--|
B|---------------3------2-3-3h5---5p3p2-3--------3---2h3-------------------3-----|
G|-----------------2------------------------4------------4--------------0--------|
D|-0--0---0------------------------------------------------4-------0-------------|
A|--------------------0---------0---------0----2---2-------------2---2-----------|
E|-------------------------------------------------------------3-----------------| 





Comentarios del colaborador: pues como siempre alguan tab en especial abisenme sale cuidaos

Calificar esta versión:
Aviso: Este fichero es trabajo propio de su transcriptor y representa su interpretación personal de la canción. El material contenido en esta página es para exclusivo uso privado, por lo que se prohibe su reproducción o retransmisión, así como su uso para fines comerciales.
Más versiones de One Last Breath, Creed
One Last Breath
acordes
One Last Breath (ver 2)
acordes
One Last Breath
tablatura
One Last Breath (ver 2)
tablatura
One Last Breath
bajo
One Last Breath
bateria
Descubre más canciones de Creed