Have You Ever See The Rain, Credence Clearwater Revival (tablatura)

Autor: costa | 36594 visualizaciones



---------0--------0------3-3--3-3-3-1-0--5-3-1-3-0-1-3-2----------0--------
------1-------1-------1---------------------------------1---1-1---------1--
--0-2--2---0-2--2---3-------------------------------------2----2-----2-----
---------------------------------------------------------------------------
---------------------------------------------------------------------------
---------------------------------------------------------------------------

 Aca biene una parte que es cuando hacen al principio  Dom  que para  y hace esto

---------------------------
---------------------------
-2-0----------------------
-----2-2-0-----------------
-----------3--------------
--------------------------
y despues de hacer el rasgueo cuando hace el sol para y responde

----------------
----------------
----------------
----------------
---2-2-0-0-----
-----------3---


Suerte Nacho





Calificar esta versión:
Aviso: Este fichero es trabajo propio de su transcriptor y representa su interpretación personal de la canción. El material contenido en esta página es para exclusivo uso privado, por lo que se prohibe su reproducción o retransmisión, así como su uso para fines comerciales.