Alaba A Dios, Coros Unidos (tablatura)

Autor: Anónimo | 43366 visualizaciones



alaba a dios mandolina
sol mayor

intro:

1  --333333333333--------
2  ----------------------
3  ----------------------
4  ----------------------


estrofa

1  ----------------------------------
2  ----3-2-3-0-3-2-3-2-5-3-5-2-5-3-5-
3  ----------------------------------
4  ----------------------------------

1  ---0-0-0-0-0-0-0-0-----------------
2  --3-5-3-5-3-5-3-5-3-2-3-2-0-3-2-3-0
3  -----------------------------------
4  -----------------------------------

1  ---------------------------------
2  --3-2-3-0-3-2-3-2-5-3-5-2-5-3-5-2
3  ---------------------------------
4  ---------------------------------

coro:

1  ------------------------------
2  ---0-2-3-5--------0-2-3-5-----
3  --5-------55555--5-------55555
4  ------------------------------

1  ---------0-------------0-----
2  --0-2-3-5-33333-0-2-3-5-33333
3  -----------------------------
4  -----------------------------

1  -------0-2-----------0-2-------3333333
2  --2-3-5---55555-2-3-5---555555--------
3  ----------------------------------
4  ----------------------------------

este barrido tiene que hacerce en el tiempo preciso

1  --3-2-0-------------
2  -------5-3-2-0------
3  --------------5-3-2-
4  --------------------

dios va el frente abri...

1  -----------------------------------
2  --2222222222----------333333-2222-0
3  ------------5555555555-------------
4  -----------------------------------

1  -------------------
2  -------------------
3  --44444-4-555555555
4  -------------------

1  -----------------------------------
2  --2222222222----------333333-2222-0
3  ------------5555555555-------------
4  -----------------------------------

           alaba a dios, alaba a dios....

1  --------------2-3-2-333333
2  ---------2-3-5------------
3  --44444-5-----------------
4  --------------------------

1  --3-2-3333-3-2-3333-55555-33333
2  -------------------------------
3  -------------------------------
4  -------------------------------

que dios los bendiga y espero que les ayude mucho bendiciones
               Coros Sendas Antiguas
                 Hno. Luis Urtubia.





Calificar esta versión:
Aviso: Este fichero es trabajo propio de su transcriptor y representa su interpretación personal de la canción. El material contenido en esta página es para exclusivo uso privado, por lo que se prohibe su reproducción o retransmisión, así como su uso para fines comerciales.
Más versiones de Alaba A Dios, Coros Unidos
Alaba A Dios
acordes
Alaba A Dios (ver 2)
acordes
Alaba A Dios
tablatura
Descubre más canciones de Coros Unidos