Tu Ausencia, Corazón Serrano (tablatura)

Autor: Anónimo | 17043 visualizaciones



primero entra el teclado

Intro: Am - F - G (2veces)

 E||----------------------------------|
 A||----------------------------------|
 D||----------------------------------|
 G||----------------------------------|
 B||-10-------------------------------|
 E||----8-10-10/12-12-12-12-10-8-10-8-|

 E||----------------------------------|
 A||----------------------------------|
 D||----------------------------------|
 G||----------------------------------|
 B||----------------------------------|
 E||-8-8/10-10-10-10-8-10--15/17-15---|

 E||----------------------------------|
 A||----------------------------------|
 D||----------------------------------|
 G||----------------------------------|
 B||-10-------------------------------|
 E||----8-10-10/12-12-15-12-10-8-10-8-|

 E||----------------------------------|
 A||----------------------------------|
 D||----------------------------------|
 G||----------------------------------|
 B||-----------------13-12-10---------|
 E||-8-8/10-10-12-10------------------|

    F - C - G - Am (2veces)


        Am        G   F
   no quiero tenerte lejos E||-8-8-10-8--10-8-10-8-10-|

   no puedo  vivir sin  ti
G||--------------------------12--|
B||--------------------------12--|
E||------------10---8-10/12--12--|

    Am         G    F
no puedo dejar de amarte E||-8-8-10-8--10-8-10-8-7-|

   besarte y   hacerte  feliz.
B||----------12----12-10-8-10--|
E||-------------10-------------|

     Am           G    F
 me duele sentir tu ausencia
     G          C
 me mata la soledad  E||-8-10-12--12-13-15--8|
      Am        G     Am
 me hace falta tu presencia E||-8-8-10-8--10-8-10-8-7-|

para amarte y sentirme feliz.
B||----------12---12-10-8-10--|
E||-------------10------------|


Intermedio: F - C - G - Am

     F
mis dias se tornar grises
    C        Em
la noche me hace llorar
       F            G
mi almohada esta mojada
    E       Am
el sabe mi penar

   F
dile a tu corazonsito
     C           Em
que tenga piedad de mi
       F                G
y no dejes que de a poquitos
     E      Am
se muera por ti

      F                G
y no dejes que de a poquitos
     E      Am
se muera por ti.

FINAL:

 E||-------------------------------------------------|
 A||-------------------------------------------------|
 D||-------------------------------------------------|
 G||-------------------------------------------------|
 B||-10----------------------------------------------|
 E||----8-10-10/12-12-12-15-13-12--10-10-10-13-12-10-|

 E||----------------------------------|
 A||----------------------------------|
 D||----------------------------------|
 G||----------------------------------|
 B||-------------12-12--13-12-10------|
 E||-10-10-10-10----------------------|  esto repite 2 veces


luego repite la cancion desde el inicio...gracias espero que les sirva..
hecho por mi...pucallpa-peru.





Calificar esta versión:
Aviso: Este fichero es trabajo propio de su transcriptor y representa su interpretación personal de la canción. El material contenido en esta página es para exclusivo uso privado, por lo que se prohibe su reproducción o retransmisión, así como su uso para fines comerciales.
Más versiones de Tu Ausencia, Corazón Serrano
Tu Ausencia
acordes
Tu Ausencia
tablatura
Descubre más canciones de Corazón Serrano