Danzaré, Conquistando Fronteras (tablatura)

Autor: Anónimo | 45715 visualizaciones

Intro:
(guitarra limpia, con delay, y muteado)
Se toca todo hasta cuando termina este primer verso
y entra otra figura,,, y en esta parte es a 3/4
E--12--------------------------
B-----12---10---9---10---12----
G------------------------------
D------------------------------
A------------------------------
E------------------------------
  E
mas glorioso de lo que mis ojos ven
   A
danzando sobre montes y collados
      E
viene nuestro rey

|| E-A ||

Igual se toca todo hasta cuando entra la parte de clamare
y donde van otras figuras,, en esta pare es a 4/4 ya toda la rola
E--12-------------------------------
B-----12---10---9---10---12---10---9
G-----------------------------------
D-----------------------------------
A-----------------------------------
E-----------------------------------

  E
del trono de justicia descendio
 A
las aguas de su rio estan fluyendo
             E
alegran la ciudad
              A
viene nuestro rey


      B
clamare
      E---------------9-----------
      B-----------9-----9---------
      G-11b(13)-----------12b(14)-

            A                B
hasta que brille tu justicia   E---12v---12v---12v--
         A               B
y tu alabanza en la tierra     E----------
                               B---12-----
                               G-------11-
           A                        B
cosas suceden cuando danzamos  ohh ohh

CORO:
   E                    A
danzare en el rio danzare
           C#m                B          E
alegre danzare mi corazon derramo ante ti
                      A
aunque no te puedo ver
           C#m                  B
tu permaneceras la gloria de tu nombre

es realidad

Intro:
E--12-------------------------------
B-----12---10---9---10---12---10---9
G-----------------------------------
  E
mas glorioso de lo que mis ojos ven
   A
danzando sobre montes y collados
      E
viene nuestro rey
      E
viene nuestro rey


  E
del trono de justicia descendio
 A
las aguas de su rio estan fluyendo
             E
alegran la ciudad
              A
viene nuestro rey


      B            A               B
clamare hasta que brille tu justicia
         A               B
y tu alabanza en la tierra
           A                        B
cosas suceden cuando danzamos  ohh ohh


CORO:
   E                    A
danzare en el rio danzare
           C#m                B          E
alegre danzare mi corazon derramo ante ti
                      A
aunque no te puedo ver
           C#m                  B
tu permaneceras la gloria de tu nombre

es realidad


Puente
E E8 F#8 G#8 A  C# C#8 D#8 E8  B


       B            A               B
clamare hasta que brille tu justicia
         A               B
y tu alabanza en la tierra
           A                        B
cosas suceden cuando danzamos  ohh ohh

solo guitarra:

E-------------------------------------9--11--12-12b(14)-11-
B-------------------------------12-------------------------
G---8--9--9-----9--11--13----------------------------------

B------------------------------------------------------12--
G---------------------------------------9--8-----8/9-------
D---4--6--6--4------4--6--6-------6--9---------------------
A------------------7-------------7-------------------------

coro:
   E                    A
danzare en el rio danzare
           C#m                B          E
alegre danzare mi corazon derramo ante ti
                      A
aunque no te puedo ver
           C#m                  B
tu permaneceras la gloria de tu nombre

es realidad

fina, luego luego en cuanto dice "es realidad"
E  A  E  A    E



Bueno pues esta es la rola,
espero y pues si les sea de
gran ayuda, el solo esta pues
casi parecido al de la rola
porq si esta medio confuson
en los solos, ps la  "b" significa bend
la "v" vibrato, "/" es slide,
Aqui les voy a poner esos tonos
qe puse cn un 8 "E8" son octavas,,
nomas qe no supe como ponerlas no
se si este bien asi pero aqi estan.



E8        F#8      G#8      C#8
e-------  e------- e------- e------- e-------
B-------  B------- B------- B------- B-------
G-9-----  G--11--- G--13--- G-6----- G--8----
D-x-----  D--x---- D--x---- D-x----- D--x----
A-7-----  A--9---- A--11--- A-4----- A--6----
E-------  E------- E------- E------- E-------

Bueno pues es todo, alguna duda aqui les dejo mi correo
Juan Aridai Sanchez Violeta (juan_72_13@hotmail.com)
Dios les Bendiga "Iglesia Dios es Amor" Chihuahua, Chihuahua
Calificar esta versión:
Aviso: Este fichero es trabajo propio de su transcriptor y representa su interpretación personal de la canción. El material contenido en esta página es para exclusivo uso privado, por lo que se prohibe su reproducción o retransmisión, así como su uso para fines comerciales.
Más versiones de Danzaré, Conquistando Fronteras
Danzaré
acordes
Danzaré (ver 2)
acordes
Danzaré
tablatura
Descubre más canciones de Conquistando Fronteras