Como Nos Ama, Conquistando Fronteras (tablatura)

Autor: Anónimo | 34085 visualizaciones

Ésta es la rola original, por favor comparenla con las otras y
por favor califiquenla no sean mala onda ¿si?

(Los acordes que utiliza son: C (cejilla), Am(cejilla), G y F pero de
todos modos, y como es costumbre en todas mis colaboraciones en la
cuerda, hasta abajo aparecen los acordes tabulados)

Ah y no olviden que el conteo en esta rola es de 3 tiempos.


C
Él está celoso por mí
   Am
Como un huracán su Amor pega en mí
    G                                   C
Rendido debajo del peso de su viento y gracia
C                                        Am
Cuando de repente eclipsas con tu gloria todas  mis aflicciones
  G                                           C
Y me doy cuenta cuan bello eres Tú y cuán grandes son Tus amores.

C                  Am                G                  C
Oh cuanto nos ama Dios, oh cuanto nos ama, como nos Ama Dios.


Despues viene el siguiente arreglo: (Se hace dos veces)

e-----------------------------------------------------------------
B--------5s13-12--------------------------------------------------
G-----------------9-----------------------------------------------
D-----------------------------------------------------------------
A-----------------------------------------------------------------
E-----------------------------------------------------------------

Y en la tercera hace esto:

e-----------------------------------------------------------------
B--------5s13--12--13--15--17-------------------------------------
G-----------------------------------------------------------------
D-----------------------------------------------------------------
A-----------------------------------------------------------------
E-----------------------------------------------------------------

Se repite una vez más eso y depués en lugar de hacer los arreglos
de arriba hace estos:

e-----------------------------------------------------------------
B--------5s13-12--------------------------------------------------
G-----------------9-----------------------------------------------
D-----------------------------------------------------------------
A-----------------------------------------------------------------
E-----------------------------------------------------------------

e-----------------------------------------------------------------
B--------5s13-----15--13-12---------------------------------------
G---------------------------9-------------------------------------
D-----------------------------------------------------------------
A-----------------------------------------------------------------
E-----------------------------------------------------------------

e-----------------------------------------------------------------
B--------5s13-12--------------------------------------------------
G-----------------9-10-12v----------------------------------------
D-----------------------------------------------------------------
A-----------------------------------------------------------------
E-----------------------------------------------------------------

Y ya después el coro:



         C            Am             G            F
//Si nos Ama, como nos Ama, como nos Ama, como nos Ama//


C
El es nuestro premio, nosotros su porción
       Am
Por la gracia en sus ojos atraídos a su Amor
         G                                  C
Y si la gracia es como el mar, sumergidos estamos
         C
El cielo toca la tierra con un beso empapado
     Am
Y mi corazón retorna con violencia agitado
  G                                         C
No tengo tiempo para remordimientos cuando veo

             C             Am             G              F
Como Tú nos Amas, como nos Amas, como nos Amas, como nos Amas

         C            Am             G            F
////Si nos Ama, como nos Ama, como nos Ama, como nos Ama////

C
El es nuestro premio, nosotros su porción
       Am
Por la gracia en sus ojos atraídos a su Amor
         G                                  C
Y si la gracia es como el mar, sumergidos estamos
         C
El cielo toca la tierra con un beso empapado
     Am
Y mi corazón retorna con violencia agitado
  G                                         C
No tengo tiempo para remordimientos cuando veo

             C             Am             G              F
Como Tú nos Amas, como nos Amas, como nos Amas, como nos Amas

         C            Am             G            F
////Si nos Ama, como nos Ama, como nos Ama, como nos Ama////

Y termina en C

Acontinuación los acorde que usa está canción tabulados:

C            Am             G             F

e--3--     e--5--        e--3--         e--1
B--5--     B--5--        B--3--         B--1
G--5--     G--5--        G--0--         G--2
D--5--     D--7--        D--0--         D--3
A--3--     A--7--        A--2--         A--3
E--x--     E--5--        E--3--         E--1

(cejilla  (cejilla      (Acorde        (cejilla
en 3er     en 5to        mayor          en 1er
traste)    traste)       posición       traste)
                         normal)

NOTA: ES IMPORTANTE QUE RESPETEN LAS POSICIONES Y NO LAS TOQUEN CON
POSICIÓN NORMAL PORQUE SI SE FIJAN BIEN, EL SONIDO ORIGINAL ES CON
LOS ACORDE CON CEJILLA

Que Dios les Bendiga mucho y voten    please¡¡¡¡¡¡¡.
Calificar esta versión:
Aviso: Este fichero es trabajo propio de su transcriptor y representa su interpretación personal de la canción. El material contenido en esta página es para exclusivo uso privado, por lo que se prohibe su reproducción o retransmisión, así como su uso para fines comerciales.
Más versiones de Como Nos Ama, Conquistando Fronteras
Como Nos Ama
acordes
Como Nos Ama (ver 2)
acordes
Como Nos Ama
tablatura
Descubre más canciones de Conquistando Fronteras