Blanco Seré, Conquistando Fronteras (tablatura)

Autor: Anónimo | 43353 visualizaciones

INTRO:
e|----------------------------
B|-----------------10---------
G|--9/11-9/11-9/11---12-11-10-   X3
D|----------------------------

e|--------------------
B|--------------------
G|-----5/7-7-7-5------   X2
D|--9-9---------9-----

e|---------------------------
B|----------------10---------
G|--9/11-9/11-9/11--12-11-10-  X2
D|---------------------------

DEPUES BIENE EL VERSO:
 D            Bm
santificame, limpia lo oculto
 A                G           A      D
quita las cosas que no son gratas a ti
 D              Bm
purificame, destruye la ira
  A               G          A      D
lava todo en mi para ser grato a ti

CORO:

 D7  G        A
blanco sere como nieve
   D          G
puro sere como el oro
   Em      A               D
mi corazon jesus te quiere alabas
   G      A
re doy mi vida señor
   D        G
romo mi cruz y te sigo
  Em    A                D
mi corazon jesus te quiere alabar

e|---------------------------
B|----------------10---------
G|--9/11-9/11-9/11--12-11-10-   X3
D|---------------------------

e|--------------------
B|--------------------
G|-----5/7-7-7-5------   X2
D|--9-9---------9-----

e|---------------------------
B|----------------10---------
G|--9/11-9/11-9/11--12-11-10-   X2
D|---------------------------

VERSO:

 D                       Bm
santificame tu eres mi luz y mi guia
 A             G      A       D
para saber agradarte solo a ti mi señor
            Bm
purificame yo necesito tu luz en mi
  A        G          A         D
para que la maldad huya y te pieda agradar

CORO:
 D7  G        A
blanco sere como nieve
   D          G
puro sere como el oro
   Em      A               D
mi corazon jesus te quiere agradar
   G      A
te doy mi vida señor
   D        G
tomo mi cruz y te sigo
  Em    A                D
mi corazon jesus te quiere alabar

BUENO ESO ES TODO ES TODO DESPUES SUBO LO QUE ES LA
PARTE DEL SOLO BENDICIONES PARA TODOS UNSALUDO A LA IGLESIA
DEL SEÑOR ORIZABA.
Calificar esta versión:
Aviso: Este fichero es trabajo propio de su transcriptor y representa su interpretación personal de la canción. El material contenido en esta página es para exclusivo uso privado, por lo que se prohibe su reproducción o retransmisión, así como su uso para fines comerciales.
Más versiones de Blanco Seré, Conquistando Fronteras
Blanco Seré
acordes
Blanco Seré
tablatura
Descubre más canciones de Conquistando Fronteras