Altísimo, Conquistando Fronteras (tablatura)

Autor: Anónimo | 18948 visualizaciones

INTRO:

G|----------------------------
D|--2--4--6---2--7--6---------
A|--4--6--7---4--9--7---------
E|----------------------------
   X8  X3 X4  X8 X3 X4

X=numero de veces que se toca
escuchen la cancion se guiaran XD



Esto se hace en el primer verso:

    E  C#m F#m  E
G|------------------------
D|--6---2---7---6---------
A|--7---4---9---7---------
E|------------------------

(despues del verso se repite el mismo intro)

E
SE HA VESTIDO EN MAJESTAD
 C#m
SE HA VESTIDO DE PODER
F#m                  E
SIEMPRE ALTISIMO, ALTISIMO

E
CON SU SANGRE LAVO MI SER
  C#m
EN LA CRUZ LLEVO MI DOLOR
  F#m                  E
PUSO SU GOZO EN MI, ALTISIMO.


F#m                         E
ME HACE DANZAR SOBRE LOS MARES
F#m                    E
GLORIOSA CRUZ CONSUME MI SER
F#m                   A
PUEDO CONFIAR EN TI, ALTISIMO


E                                      F#m
SEA  EXALTADO SOBRE LOS CIELOS, SOBRE LA TIERRA
           A               E
SEA EXALTADO ALTISIMO, ALTISIMO
E
TU PERDON ME HACE CANTAR ME HACE DANZAR
F#m                   A                E
SOBRE EL DESIERTO, SIEMPRE ALTISIMO, ALTISIMO.


ESTO ES EL INTERMEDIO

"HACEN RITMO CON EFECTO DELAY"
escuchen la cancion y toquen con la guitarra limpia
para que se acostumbren (estos son los cambios)


E|------------------------------------------
B|--12-----10-----9-----10------------------
G|----------------------------9-------------
D|---9------7-----6------7------------------
A|-----------------------------7------------
E|------------------------------------------

E|----------------------------------------------12--------
B|--10-----9-----10----------10-----9-----10--------------
G|-------------- -------9------------------------9--------
D|---7-----6------7-----------7-----6------7--------------
A|----------------------7---------------------------------
E|--------------------------------------------------------

y despues sigue este pequeño puente con la guitarra en distor:

E|-----------------------------------------------------------
B|-----------------------------------------------------------
G|------------------------9----------------------------------
D|----9-9-9-8-7---9-9-9-8-7---9-9-9-8-7----7-5---------------X2
A|----7-7-7-6-5---7-7-7-6-----7-7-7-6-5----------------------
E|-----------------------------------------5-3---------------


ya se repite todo XD

para mas info entren a "Resh City" en facebook

si no nos encuentras:
www.facebook.com/ReshOficial copea y pega en tu buscador

si necesitan el solo de esta cancion manden inbox :D
Calificar esta versión:
Aviso: Este fichero es trabajo propio de su transcriptor y representa su interpretación personal de la canción. El material contenido en esta página es para exclusivo uso privado, por lo que se prohibe su reproducción o retransmisión, así como su uso para fines comerciales.
Más versiones de Altísimo, Conquistando Fronteras
Altísimo
acordes
Altísimo
tablatura
Descubre más canciones de Conquistando Fronteras