Payaso, Condena Punk (bajo)

Autor: nicko_parabellum | 38971 visualizaciones



PAYASO - CONDENA PUNK

Intro:

G|-------------------------|  
D|-------------------------|x3
A|--------------5-5-7-7----|  
E|--3-3-3-3-3--------------|  

G|-------------------------|
D|-------------------------|x2
A|--3-3-3-3-3--5-5-5-5-5---|
E|-------------------------|


BASE 1

G|---------------------------------------|  
D|---------------------------------------|
A|--------------5-5-5-5-5-7-7-7-7-7-7-7--|  
E|--3-3-3-3-3----------------------------|  

BASE 2

G|-----------------------------------------------------|  
D|-----------------------------------------------------|
A|--3-3-3-3-3--5-5-5-5-5--3-3-3-3-3--5-5-5-5-5-5-5-5---|  
E|-----------------------------------------------------|  


Estaba sentado con unos amigos   SOBRE BASE 1
Contandole como eras conmigo     SOBRE BASE 1 
Y justo vos pasaste              SOBRE BASE 2
Mi cabeza agachaste              SOBRE BASE 2

Y te gitaron
Payaso, no vuelvas mas           SOBRE BASE 1
Payaso, vete de aca              SOBRE BASE 1
Vete ya de aqui                  SOBRE BASE 2
Vete ya del pais                 SOBRE BASE 2


REPITE EL INTRO


Estaba con mi novia en una esquina    SOBRE BASE 1
Pasaste y le gritaste cretina         SOBRE BASE 1
Vos saliste a correr                  SOBRE BASE 2
Por eso te grite                      SOBRE BASE 2

Payaso, no vuelvas mas      SOBRE BASE 1
Payaso, vete de aca         SOBRE BASE 1
Vete ya de aqui             SOBRE BASE 2
Vete ya del pais            SOBRE BASE 2


Esta va para el Toti.. (h)
Jeje toy siempre chicos saludo a la banda... (H)







Comentarios del colaborador: Es para todos los bajistas... poara vos totii ke sos el compositorr de este tema.. chacha toti covani de la decima:P jaja

Calificar esta versión:
Aviso: Este fichero es trabajo propio de su transcriptor y representa su interpretación personal de la canción. El material contenido en esta página es para exclusivo uso privado, por lo que se prohibe su reproducción o retransmisión, así como su uso para fines comerciales.
Más versiones de Payaso, Condena Punk
Payaso
acordes
Payaso
bajo
Descubre más canciones de Condena Punk