The Hardest Part, Coldplay (acordes)

Autor: cottoitto | 19101 visualizaciones

amcdmfg
Intro
E --0- --0-  --0- --0-  --0- --0- --0- --0-
B -1-- -1--  -0-- -0--  -3-- -3-- -3-- -3--
G 0--- 0---  0--- 0---  0--- 0--- 0--- 0---
D ---- ----  ---- ----  ---- ---- ---- ----
A ---- ----  ---- ----  ---- ---- ---- ----
E ---- ----  ---- ----  ---- ---- ---- ----

E --0- --0-  --0- --0-  --0- --0- --0- --0-
B -1-- -1--  -1-- -1--  -3-- -3-- -3-- -3--
G 0--- 0---  0--- 0---  0--- 0--- 0--- 0---
D ---- ----  ---- ----  ---- ---- ---- ----
A ---- ----  ---- ----  ---- ---- ---- ----
E ---- ----  ---- ----  ---- ---- ---- ----

Am        F
  AND THE HARDEST PART  
  C                   G        Am
  WAS LETTING GO, NOT TAKING PART  
Am        F          C   G
  WAS THE HARDEST PART

Am        F
  AND THE STRANGEST THING  
  C                    G         Am
  WAS WAITING FOR THAT BELL TO RING  
Am           F             C   G
  IT WAS THE STRANGEST START

  F       Am         C  G
  I COULD FEEL IT GO DOWN  
  F        Am            C           G
  BITTERSWEET, I COULD TASTE IN MY MOUTH  
  F         Am      C       G
  SILVER LINING THE CLOUD  
         Am  F  Dm  G
  OH AND I
  G
  I WISH THAT I COULD WORK IT OUT

Am        F
  AND THE HARDEST PART  
  C                   G        Am
  WAS LETTING GO, NOT TAKING PART 
Am           F           C    G
  YOU REALLY BROKE MY HEART

Am      F  
  AND I TRIED TO SING
      C                   G
  BUT I COULDN´T THINK OF ANYTHING
Am             F             C    G
  AND THAT WAS THE HARDEST PART

  F       Am         C  G
  I COULD FEEL IT GO DOWN  
F              Am         C         G  
  YOU LEFT THE SWEETEST TASTE IN MY MOUTH
F                 Am         C       G
  YOU´RE A SILVER LINING THE CLOUDS  
         Am  F  Dm  
  OH AND I
         Am  F  Dm  G
  OH AND I
  G
  I WONDER WHAT IT´S ALL ABOUT

E --0- --0-  --0- --0-  --0- --0- --0- --0-
B -1-- -1--  -0-- -0--  -3-- -3-- -3-- -3--
G 0--- 0---  0--- 0---  0--- 0--- 0--- 0---
D ---- ----  ---- ----  ---- ---- ---- ----
A ---- ----  ---- ----  ---- ---- ---- ----
E ---- ----  ---- ----  ---- ---- ---- ----

E --0- --0-  --0- --0-  --0- --0- --0- --0-
B -1-- -1--  -1-- -1--  -3-- -3-- -3-- -3--
G 0--- 0---  0--- 0---  0--- 0--- 0--- 0---
D ---- ----  ---- ----  ---- ---- ---- ----
A ---- ----  ---- ----  ---- ---- ---- ----
E ---- ----  ---- ----  ---- ---- ---- ----
  
  G
  I WONDER WHAT IT´S ALL ABOUT

  Am         F      C  Dm
  EVERYTHING I KNOW IS WRONG
             F          C          Am
  EVERYTHING I DO, IT´S JUST COMES UNDONE
                    F  C    Dm
  AND EVERYTHING IS TORN APART

            F
  OH AND IT´S THE HARDEST PART
            G
  THAT´S THE HARDEST PART
            F
  YEAH THAT´S THE HARDEST PART
            G
  THAT´S THE HARDEST PART

Comentarios del colaborador: espero la disfruten, es creo la mejor transcripcion de esta cancion, ademas muy facil de tocar suerte!

Calificar esta versión:
Aviso: Este fichero es trabajo propio de su transcriptor y representa su interpretación personal de la canción. El material contenido en esta página es para exclusivo uso privado, por lo que se prohibe su reproducción o retransmisión, así como su uso para fines comerciales.
Más versiones de The Hardest Part, Coldplay
The Hardest Part
acordes
The Hardest Part
tablatura
Descubre más canciones de Coldplay