Speed Of Sound, Coldplay (tablatura) (ver 2)

Autor: dark wind | 16723 visualizaciones

riff 1

E-0------------0----------0----------------
B---3------------3----------3--------------
G-----2---2-------0---0--------------------
D-------------------2---2------4---4-------
A-------0---0--------------------5---5-----
E------------------------------------------


E-0-----------0-----------0-----------0-----
B---3-----------3-----------3-----------3---
G-----2---2-------0---0-------0---0-------4-
D-------------------2---2-------2---2-------
A-------0---0-------------------------------
E-------------------------------------------


riff 2


E----------------------------------------------
B-10--------------7--8--------7-8------8-7-----
G----11---7-7---9---------7-9--------7-----9-7-
D----------------------------------------------  X2
A----------------------------------------------
E----------------------------------------------

Comentarios del colaborador: ojala les guste esta mejor que otras que andan dando vuelta por hay xD. tambien que la escribi pa la nay que es la niña mas preciosa del mundo y le encanta este tema ^^

Calificar esta versión:
Aviso: Este fichero es trabajo propio de su transcriptor y representa su interpretación personal de la canción. El material contenido en esta página es para exclusivo uso privado, por lo que se prohibe su reproducción o retransmisión, así como su uso para fines comerciales.
Más versiones de Speed Of Sound, Coldplay
Speed Of Sound
acordes
Speed Of Sound
tablatura
Speed Of Sound (ver 2)
tablatura
Speed Of Sound
bajo
Descubre más canciones de Coldplay