God Put Smile Upon Your Face, Coldplay (acordes)

Autor: fherxo | 46155 visualizaciones

aabbbbcdd5d9dbdsus2eebemfsosg6gb
Versão 1
-======-

      Db        E         Eb             D
e|---1---1-----4---4-----3---3-----3-----2--|
B|---2---2-----5---5-----4---4-----4-----3--|
G|---1---1-----4---4-----3---3-----3-----2--|
D|-0---0---0-3---3---0-2---2---0-2---0-1---0|
A|------------------------------------------|
E|------------------------------------------|

Db          E          Eb	 D
Where do we go, nobody knows
I've got to stay I'm on my way down 
Db          E          Eb	 D
God give me style and give me grace 
God put a smile upon my face 

Db E Eb D Db [2x]

e|------------------------------|
B|--1412-9/12--129-5/8-----7----|
G|------------------------------|
D|------------------------------|   X2
A|------------------------------|
E|------------------------------|

Db          E              Eb	D
where do we go to draw the line 
I've got to stay, I've wasted all your time, oh honey honey 
where do I go to fall from grace 
God put a smile upon your face, yeah 

A	     E	             F#		A
now when you work it out I'm worse than yoooou 
	     E              F#		A
yeah when we work it out, i wanted too 
	    E	              F#		A
now when we work out where to draw the line 
your guess is as good as mine...

e|------------------------------|
B|--1412-9/12--129-5/8-----7----|
G|------------------------------|
D|------------------------------|   X2
A|------------------------------|
E|------------------------------|

Db E Eb D Db [2x]

Db E Eb D
where do we go, nobody knows 
don't ever stay you're on your way down, when 

Tocar várias vezes dentro de []
e|------------------------------|
B|--[2]-2-4-5-4-2---------------|
G|------------------------------|
D|------------------------------|     X2
A|------------------------------|
E|------------------------------|

Db E Eb D
god give you style and give you grace 
and put a smile upon your face


A	     E	             F#		A
now when you work it out I'm worse than yoooou 
	     E              F#		A
yeah when we work it out, i wanted too 
	    E	              F#		A
now when we work out where to draw the line 
		 E		
your guess is as good as mine...

Db E Eb D
it's as good as mine,
it's as good as mine,

-----começa esse solo
e|------------------------------|
B|--[2]-2-4-5-4-2---------------|
G|------------------------------|
D|------------------------------|    
A|------------------------------|
E|------------------------------|
it's as good as mine,
no, no no, no no,
no, no no, no no,
		A	E
it's as good as mine,
	F#	A
It's as good as mine,
[as good as mine]
as good as mine,
[as good as mine]
as good as mine,
[as good as mine]

-----termina o solo

Db E Eb D
where do we go, nobody knows
don't ever stay you're on your way down, when
Db E Eb D
god give you style and give you grace
and put a smile upon your face

_______________________________________________________

Versão 2
-======-

Afinação:  Db Ab Db Gb C Eb

Bom, essa aqui é uma provável afinação. Tenho ainda duas dúvidas, pode
ser que a segunda corda seja afinada Em Bb, mas Em C soa legal.
Essa tablatura aqui embaixo é mais ou menos a os acordes que você tem 
que montar.
Seriam, NOMEANDO OS FORMATOS: D9 [ ou Dsus2], D5 B E "G6".

-----------------------------------------
---3---3-----3---3-----3---3-----3-----3-
---2---2-----2---2-----1---1-----1-----0-
---0---0-----0---0-----0---0-----0-----0-
-----------------------------------------
-0---0---0-3---3---0-2---2---0-2---0-1---

---------------------------------------
---3---3-----3---3-----3---3-----3---3-
---2---2-----2---2-----1---1-----0---0-
---0---0-----0---0-----0---0-----0---0-
---------------------------------------
-0---0---0-3---3---0-2---2---0-1---1---

Bom, o refrão é o seguinte. Você faz o FORMATO de Bb sem o baixo,F7+ E
G7. Assim:

---------0-------0------
-3-------1-------5------
-3-------2-------3------
-3-------3-------4------
-0-------0-------0------
------------------------

Aki vai minha versão para o Riff:

--12-----------------------------------------
-----14-------12---12------------------------
---------13------------13--------------------
---------------------------14--17--16--11-----
----------------------------------------------
---------------------------------------------
Calificar esta versión:
Aviso: Este fichero es trabajo propio de su transcriptor y representa su interpretación personal de la canción. El material contenido en esta página es para exclusivo uso privado, por lo que se prohibe su reproducción o retransmisión, así como su uso para fines comerciales.
Más versiones de God Put Smile Upon Your Face, Coldplay
God Put Smile Upon Your Face
acordes
God Put Smile Upon Your Face
tablatura
Descubre más canciones de Coldplay