Fix You, Coldplay (bajo)

Autor: fherxo | 27606 visualizaciones

Intro
G--------------------------------------------
D----------5--8---10---8----------------------
A-6-----6---------------6-----6--10---5--4--2- 
E--------------------------------------------

refrao                    

G--------------------------------------------
D----------5--8---10---8----------------------
A-6-----6---------------6-----6--10---5--4--2- 
E--------------------------------------------


G--------------------------------------------
D--------------------------------------------
A-6---------------6-------------6------------
E----6-------4----------6-----4----6---------


G--------------------------------------------
D----------5--8---10---8----------------------
A-6-----6---------------6-----6--10---5--4--2- 
E--------------------------------------------

Ponte
G--------------------------------------------
D-------6---6--------------------------------
A-6---6-------6---6---6----------------------
E--------------------6-----------------------

Agora a bateria entra
G----------------------------------------------------------------
D---------------------------------6-6-6-6-6-6-6-6-6-6-6-6-6-6-6-6                 
A-6-6-6-6-6-6-6-6-6-6-6-6-6-6-6-6--------------------------------                 
E----------------------------------------------------------------

G--------------------------------------------------------------
D--------------------------------------------------------------
A6-6-6-6-6-6-6-6-6-6-6-6-6-6-6-6-------------------------------
E-------------------------------6-6-6-6-6-6-6-6-6-6-6-6-6-6-6-6
Calificar esta versión:
Aviso: Este fichero es trabajo propio de su transcriptor y representa su interpretación personal de la canción. El material contenido en esta página es para exclusivo uso privado, por lo que se prohibe su reproducción o retransmisión, así como su uso para fines comerciales.
Más versiones de Fix You, Coldplay
Fix You
acordes
Fix You (ver 2)
acordes
Fix You (ver 3)
acordes
Fix You
tablatura
Fix You
bajo
Descubre más canciones de Coldplay