Me Haces Feliz, Coalo Zamorano (bajo)

Autor: Anónimo | 15047 visualizaciones

HOLA ESTA ES MI PRIMER TRASCRIPCION ASI Q ESPERO Q LES SIRVA
LES ACONSEJO Q ESCUCHEN LA CANCION PARA Q EMPALMEN BN LOS
TIEMPOS

INTRO x2

B --------------3--3-3-----------------3----------
E --1-1-1-1-5----------0--1-1--1-1-5----------2---
A ------------5----------------------5------------
D ------------------------------------------------
G ------------------------------------------------

VERSO (aquí solo marca los tiempos)

PRE CORO 1
E --------------
A ----8----5/1--
D --7----5------
G --------------

CORO
E ------------------------------------------------------
A –-3-5-5-8-------5---------5/1-3-5-5-8-------5---------
D ----------7-5/1---5-5-7---------------7-5/1---5-5-6-7-
G ------------------------------------------------------

E -----------------------------------------------------------
A –5/1-3-5-5-8-------5---------5/1-3-5-5-8-------------7-----
D -------------7-5/1---5-5-7---------------7-5-5-5-5-4-----2-
G -----------------------------------------------------------

INTRO x2

VERSO 1

PRE CORO 2
E -------------------8---5/1-
A -----------7-5---7---5-----
D -----5-6-5-----------------
G -5-4-----------------------

CORO

Intro x2

Esto es lo q hace parta entrar al puente

E --1-4-5---------4-5/1--
A --------3-5--5---------
D -----------------------
G -----------------------

PUENTE
E --5------8-7-----7-5-6--
A ----7--------8-7--------
D ------7-----------------
G ------------------------

PRE CORO 3
E ----------------------------------------------------8-----5---
A --5-5-5-5-5--10-8-7-7--5-7-8--7-5-7---7-10--------7-----5-----
D -------------------------------------------7-9----------------
G -----------------------------------------------9--------------

CORO x4

FINAL
E --5-7-8---------------0-0-4-5/1--
A ---------5-7-8-7/1---------------
D ---------------------------------
G ---------------------------------

bueno ps espero q les sirva, cualquier duda o correccion escribanla
cristia_jaciel@hotmail.com D.L.B
Calificar esta versión:
Aviso: Este fichero es trabajo propio de su transcriptor y representa su interpretación personal de la canción. El material contenido en esta página es para exclusivo uso privado, por lo que se prohibe su reproducción o retransmisión, así como su uso para fines comerciales.
Más versiones de Me Haces Feliz, Coalo Zamorano
Me Haces Feliz
acordes
Me Haces Feliz (ver 2)
acordes
Me Haces Feliz
bajo
Descubre más canciones de Coalo Zamorano